The Devil Wears Prada - Born To Lose tab

-------------------------------------------------------------------------------
			     Born to lose - The devil wears prada
-------------------------------------------------------------------------------
Tabbed by:Sam Allen
Email:Allensaam83@yahoo.com

Tuning:Drop B low to high (B,F#,B,E,G#,C#)

this is just how i play it took like maybe an hour my first tab so please let me know 
how i did and rate. :)

|---------------------------------------------------------------------------|
|---------------------------------------------------------------------------|
|-------------------------------------------7b-----------7b-----------------|
|----------------------------------------------------------------5-8-5-4----|
|--000----5----000----5---------------5b-----------5b-----------------------|
|--000--0---0--000--0---0--8--0--8--0----0------0-----0------0--------------|

|--------------------------------------------------------------------------------|
|--------------------------------------------------------------------------------|
|-------------------------------------------7b-----------7b----------------------|
|----------------------------------------------------------------5-8-5-4-5-4-----|
|--000----5----000----5---------------5b-----------5b------------------------6-5-|
|--000--0---0--000--0---0--8--0--8--0----0------0-----0------0-------------------|


|---------------------------------------------------------------------------|
|---------------------------------------------------------------------------|
|---------------------------------------------------------------------------|
|---------5---------------------------5-----------------8----8--------------|
|-000--9-----9--0-0-000-000---000--9-----9--0-0-000--12---12---12-----------|
|-000-----------0-0-000-000---000-----------0-0-000-------------------------|

repeat 2 times

|---------------------------------------------------------------------------|
|---------------------------------------------------------------------------|
|---------------------------------------------------------------------------|
|-12---------------12-----12---12---13-12---------------8-----8---3---5-6---|
|-12-0-0-0---0-0-0-12-0-0-12-0-12-0-13-12-0-0-0---0-0-0-8-0-0-8-0-3-0-5-6---|
|-12-0-0-0---0-0-0-12-0-0-12-0-12-0-13-12-0-0-0---0-0-0-8-0-0-8-0-3-0-5-6---|

|---------------------------------------------------------------------------|
|---------------------------------------------------------------------------|
|---------------------------------------------------------------------------|
|---------------12-----12---12---13-12---------------8-----8---3---5--------|
|-0-0-0---0-0-0-12-0-0-12-0-12-0-13-12-0-0-0---0-0-0-8-0-0-8-0-3-0-5--------|
|-0-0-0---0-0-0-12-0-0-12-0-12-0-13-12-0-0-0---0-0-0-8-0-0-8-0-3-0-5--------|


|---------------------------------------------------------------------------|
|---------------------------------------------------------------------------|
|--------------------------------------------------------7b-----------------|
|---------------------------------------------------------------------------|
|-----3---000-----3---000-000-000-----3---000-000---5b---------5------------|
|-1-3---0-000-1-3---0-000-000-000-1-3---0-000-000-0----0----0---------------|

repeat 2 times


|----------------------------------------------------10---------------------|
|-------------------------------------10h12-------13------------------------|
|-10-9-7-7--10-9-7-7--5h7-7--10-9-7-7-------13----------12------------------|
|----------------------------------------------12----------14---------------|
|---------------------------------------------------------------------------|
|---------------------------------------------------------------------------|

repeat 6 times


|---------------------------------------------------------------------------|
|---------------------------------------------------------------------------|
|-------------------------------------------7b-----------7b-----------------|
|----------------------------------------------------------------5-8-5-4----|
|--000----5----000----5---------------5b-----------5b-----------------------|
|--000--0---0--000--0---0--8--0--8--0----0------0-----0------0--------------|

|--------------------------------------------------------------------------------|
|--------------------------------------------------------------------------------|
|-------------------------------------------7b-----------7b----------------------|
|----------------------------------------------------------------5-8-5-4-5-4-----|
|--000----5----000----5---------------5b-----------5b------------------------6-5-|
|--000--0---0--000--0---0--8--0--8--0----0------0-----0------0-------------------|

sick bass riff

|---------------------------------------------------------------------------|
|---------------------------------------------------------------------------|
|---------------------------------------------------------------------------|
|-/-12---------------12-----12---12---13-12---------------8-----8---3---5-6-|
|-/-12-0-0-0---0-0-0-12-0-0-12-0-12-0-13-12-0-0-0---0-0-0-8-0-0-8-0-3-0-5-6-|
|-/-12-0-0-0---0-0-0-12-0-0-12-0-12-0-13-12-0-0-0---0-0-0-8-0-0-8-0-3-0-5-6-|
pick slide
|---------------------------------------------------------------------------|
|---------------------------------------------------------------------------|
|---------------------------------------------------------------------------|
|---------------12-----12---12---13-12---------------8-----8---3---5--------|
|-0-0-0---0-0-0-12-0-0-12-0-12-0-13-12-0-0-0---0-0-0-8-0-0-8-0-3-0-5--------|
|-0-0-0---0-0-0-12-0-0-12-0-12-0-13-12-0-0-0---0-0-0-8-0-0-8-0-3-0-5--------|


|---------------------------------------------------------------------------|
|---------------------------------------------------------------------------|
|--------------------------------------------------------7b-----------------|
|---------------------------------------------------------------------------|
|-----3---000-----3---000-000-000-----3---000-000---5b---------5------------|
|-1-3---0-000-1-3---0-000-000-000-1-3---0-000-000-0----0----0---------------|

repeat 2 times


|----------------------------------------------------10---------------------|
|-------------------------------------10h12-------13------------------------|
|-10-9-7-7--10-9-7-7--5h7-7--10-9-7-7-------13----------12------------------|
|----------------------------------------------12----------14---------------|
|---------------------------------------------------------------------------|
|---------------------------------------------------------------------------|

repeat 6 times

final break down

its just a bunch open palm muted notes, pretty easy to work out
Tap to rate this tab
 
# A B C D E F G H I J K L M N O P Q R S T U V W X Y Z