Song name
# A B C D E F G H I J K L M N O P Q R S T U V W X Y Z

The Devil Wears Prada - Survivor tab

Tabbed by: smallen
Email: allensam83@yahoo.com

Tuning: B,F#,B,E,G#,C#

decided to tab this since the other tab has got the basics but its just 
missing some stuff, so yeah enjoy. :)

Intro
|-----------------------------------------------------|
|--------------1111111111111111-----------------------|
|--------8-----x-x-x-x-x-x-x-x-------------77777777---|
|--8-7-0-x-0---8-8-8-8-8-8-8-8---------0---xxxxxxxx---|
|--8-7-0-6-0---------------------1-3-2-0---55555555---|
|--8-7-0---0---------------------1-3-2-0--------------|
                                 . . .
|-----------------------------------------------------|
|--------------1111111111111111-----------------------|
|--------8-----x-x-x-x-x-x-x-x-------------77777778---|
|--8-7-0-x-0---8-8-8-8-8-8-8-8---------0---xxxxxxxx---|
|--8-7-0-6-0---------------------1-3-2-0---55555556---|
|--8-7-0---0---------------------1-3-2-0--------------|
                                 . . .


|-------------------------------------------------|
|------------1111111111111111---------------------|
|------------x-x-x-x-x-x-x-x-----------77777777---|
|--------0---8-8-8-8-8-8-8-8-------0---xxxxxxxx---|
|--1-3-2-0-------------------1-3-2-0---55555555---|
|--1-3-2-0-------------------1-3-2-0--------------|
   . . .                     . . .
|----------------------------------------------------------------|
|--------------1111111111111111----------------------------------|
|--------8-----x-x-x-x-x-x-x-x-------------77777777--------------|
|--8-7-0-x-0---8-8-8-8-8-8-8-8---------0---xxxxxxxx--------------|
|--8-7-0-6-0---------------------1-3-2-0---55555555--------------|
|--8-7-0---0---------------------1-3-2-0------------1-0--0-0-0-0-|
                                 . . .                .  . . . .


|---------------------------------------------------------------------------|
|---11---11--------------------------11---11--------------------------------|
|---x----x---------------------------x----x---------------------------------|
|---8----8---5---5---1---1---0---0---8----8---1---1-------------------------|
|------------5---5---1---1---0---0------------1---1---1---------------------|
|-0----0---0---0---0---0---0---0---0----0---0---0---0-1--0h4h7p4p0h4h7p4p0--|
  .    .   .   .   .   .   .   .   .    .   .   .   .                         
|---------------------------------------------------------------------------|
|---11---11--------------------------11---11--------------------------------|
|---x----x---------------------------x----x---------------------------------|
|---8----8---5---5---1---1---0---0---8----8---1---1-------------------------|
|------------5---5---1---1---0---0------------1---1---1---------------------|
|-0----0---0---0---0---0---0---0---0----0---0---0---0-1--0h1h4p1p0h1h4p1p0--|
  .    .   .   .   .   .   .   .   .    .   .   .   .

guitar break


|--------------|
|--------------|
|--------------|
|--0-5-3-8-10--|
|--0-5-3-8-10--|
|--0-5-3-8-10--|
strum these chords 4 times listen to song for rhythm. 

|-----------|
|-----------|
|-----------|
|-0~---1-0--|
|-0~---1-0--|
|-0~---1-0--|

|----------------------------------------------------------|
|--------------1111111111111111----------------------------|
|--------8-----x-x-x-x-x-x-x-x-------------7777777---------|
|--8-7-0-x-0---8-8-8-8-8-8-8-8---------0---xxxxxxx---------|
|--8-7-0-6-0---------------------1-3-2-0---5555555--1-3-2--|
|--8-7-0---0---------------------1-3-2-0------------1-3-2--|
                                 . . .              . . .
breakdown 
|----------------------------------------------------|
|----------------------------------------------------|
|----------------------------------------------------|    
|----------------------------------------------------| x4 2nd time instead
|--000000--000000--00000---00-00-00-00-00-00000-10/--|    of the slide play
|--000000--000000--00000---00-00-00-00-00-00000-10/--|    a pitch harmonic on
   ......  ......  .....   .. .. .. .. .. .....           3 on the A string

|------------------|
|------------------|
|------------------|
|------------------|
|--000000--000000--|
|--000000--000000--|
   ......  ......

|--------------------------------------|
|--------------------------------------|
|--------------------------------------|
|--------------------------------------| x2
|--00-00--00-00-------00-00--00-00-00--|
|--00-00--00-00-------00-00--00-00-00--|
   .. ..  .. ..       .. ..  .. .. ..

|-------------------|
|-------------------|
|-------------------|
|-------------------| x4
|--00-00--00-00-00--|
|--00-00--00-00-00--|
   .. ..  .. .. ..      
Tap to rate this tab
# A B C D E F G H I J K L M N O P Q R S T U V W X Y Z