Song name
# A B C D E F G H I J K L M N O P Q R S T U V W X Y Z

The Devil Wears Prada - Html Rulez D00d tab

                   HTML Rulez D00d - The Devil Wears Prada                               

Duration Legend
---------------
W - whole
H - half
Q - quarter
E - 8th
S - 16th
T - 32nd
X - 64th
. - note dotted
|-n-|  - n-tuplets


Tablature Legend
----------------
L - tied note
x - dead note
g - grace note
(n) - ghost note
> - accentuded note
NH - natural harmonic
AH - artificial harmonic
TH - tapped harmonic
SH - semi harmonic
PH - pitch harmonic
h - hammer on
p - pull off
b - bend
br - bendRelease
pb - preBend
pbr - preBendRelease
brb - bendReleaseBend
\n/ - tremolo bar dip
\n - tremolo bar dive
-/n - tremolo bar Release up
/n\ - tremolo bar inverted dip
/n - tremolo bar return
-\n - tremolo bar Release down
S - shift slide
s - legato slide
/ -  slide into from below or out of upwards
\ -  slide into from above or out of downwards
~ - vibrato
W - wide vibrato
tr - trill
TP - tremolo picking
T - tapping
S - slap
P - pop
< - fade in
^ - brush up
v - brush down                                

                           
Guitar 1



      PM                         PM         
      Q       E     E     Q      E     E    
E||----------------------------------------|
B||----------------------------------------|
G||----------(9)---(9)---(9)----------(9)--|
D||---------(10)--(10)--(10)---------(10)--|
A||--(0)-----(0)---(0)---(0)----(0)---(0)--|
D||----------------------------------------|


   PM           PM                          PM                      PM        
   E     Q      E     E     E     Q         Q      E    E    Q      E    E    
----------------------------------------|------------------------------------|
----------------------------------------|---------(6)--(6)--(6)---------(6)--|
--------(9)----------(9)---(9)---(9)----|---------(7)--(7)--(7)---------(7)--|
-------(10)---------(10)--(10)--(10)----|---------(9)--(9)--(9)---------(9)--|
--(0)---(0)----(0)---(0)---(0)---(0)----|--(0)----(0)--(0)--(0)----(0)--(0)--|
----------------------------------------|------------------------------------|


   PM          PM                       PM                         PM         
   E    Q      E    E    E    Q         Q       E     E     Q      E     E    
------------------------------------|----------------------------------------|
-------(6)---------(6)--(6)--(6)----|----------------------------------------|
-------(7)---------(7)--(7)--(7)----|----------(9)---(9)---(9)----------(9)--|
-------(9)---------(9)--(9)--(9)----|---------(10)--(10)--(10)---------(10)--|
--(0)--(0)----(0)--(0)--(0)--(0)----|--(0)-----(0)---(0)---(0)----(0)---(0)--|
------------------------------------|----------------------------------------|


   PM           PM                                             
   E     Q      E     E     E     Q         W                  
----------------------------------------|---------------------|
----------------------------------------|--(6)----------------|
--------(9)----------(9)---(9)---(9)----|--(7)----------------|
-------(10)---------(10)--(10)--(10)----|--(9)----------------|
--(0)---(0)----(0)---(0)---(0)---(0)----|--(0)----------------|
----------------------------------------|---------------------|


  W                   Q    Q    E  E  Q       E  E  Q    E   E   E   E   
-------------------|-----------------------|----------------------------|
--L----------------|-----------------------|----------------------------|
--L----------------|-----------------------|----------------14--14--14--|
--L----------------|--8----8----8--8--8----|--8--8--8----8---x---x---x--|
--L----------------|--8----8----8--8--8----|--8--8--8----8--12--12--12--|
-------------------|--8----8----8--8--8----|--8--8--8----8--------------|


  Q    Q    E  E  Q       E  E  Q    E   E   E   E   
-----------------------|----------------------------|
-----------------------|----------------------------|
-----------------------|----------------14--14--14--|
--8----8----8--8--8----|--8--8--8----8---x---x---x--|
--8----8----8--8--8----|--8--8--8----8--12--12--12--|
--8----8----8--8--8----|--8--8--8----8--------------|


  Q     E   E   Q    E  E     Q     E   E   Q    E  E   
---------------------------|---------------------------|
---------------------------|---------------------------|
-------14--14--14----------|-------14--14--14----------|
--0-----x---x---x----0--0--|--L-----x---x---x----0--0--|
--0----12--12--12----0--0--|--L----12--12--12----0--0--|
--0------------------0--0--|--L------------------0--0--|


  Q     E   E   Q    E  E     Q     E   E   Q    Q       Q    Q    E  E  E  E   
---------------------------|--------------------------|------------------------|
---------------------------|--------------------------|------------------------|
-------14--14--14----------|-------12--12--12---------|------------------------|
--L-----x---x---x----0--0--|--L-----x---x---x---------|--3----3----3--3--3--3--|
--L----12--12--12----0--0--|--L----10--10--10----0----|--3----3----3--3--3--3--|
--L------------------0--0--|--L------------------0----|--3----3----3--3--3--3--|


  E  E  Q    E  E  E  E     Q    Q    E  E  E  E     E  E  Q    E  E  E  E   
-------------------------|------------------------|-------------------------|
-------------------------|------------------------|-------------------------|
-------------------------|------------------------|-------------------------|
--L--3--3----3--3--3--3--|--5----5----5--5--5--5--|--L--5--5----5--5--5--5--|
--L--3--3----3--3--3--3--|--5----5----5--5--5--5--|--L--5--5----5--5--5--5--|
--L--3--3----3--3--3--3--|--5----5----5--5--5--5--|--L--5--5----5--5--5--5--|


  Q     E   E   Q    E  E     Q     E   E   Q    E  E   
---------------------------|---------------------------|
---------------------------|---------------------------|
-------14--14--14----------|-------14--14--14----------|
--0-----x---x---x----0--0--|--L-----x---x---x----0--0--|
--0----12--12--12----0--0--|--L----12--12--12----0--0--|
--0------------------0--0--|--L------------------0--0--|


  Q     E   E   Q    E  E     Q     E   E   E   E   E   E   
---------------------------|-------------------------------|
---------------------------|-------------------------------|
-------14--14--14----------|-------12--12--12--12--12--12--|
--L-----x---x---x----0--0--|--L-----x---x---x---x---x---x--|
--L----12--12--12----0--0--|--L----10--10--10--10--10--10--|
--L------------------0--0--|--L----------------------------|


   E   E   E  E   E  E   E  E      E  E   E  E   E   E   E  E   
-------------------------------|-------------------------------|
-------------------------------|-------------------------------|
-------------------------------|-------------------------------|
--12--12--12-----12-----12-----|--12-----12-----12--12--12-----|
--12--12--12-----12-----12-----|--12-----12-----12--12--12-----|
--12--12--12-----12-----12-----|--12-----12-----12--12--12-----|


   E   E   E  E   E  E   E  E      E  E   E  E   E   E   E  E   
-------------------------------|-------------------------------|
-------------------------------|-------------------------------|
-------------------------------|-------------------------------|
--12--12--12-----12-----12-----|--12-----12-----12--12--12-----|
--12--12--12-----12-----12-----|--12-----12-----12--12--12-----|
--12--12--12-----12-----12-----|--12-----12-----12--12--12-----|


  PM PM PM PM PM    PM    PM       PM PM PM PM PM    PM PM PM PM PM     
  S  S  S  S  E  E  E  E  E  E     S  S  S  S  E  E  S  S  S  S  E  E   
--------------------------------|--------------------------------------|
--------------------------------|--------------------------------------|
--------------------------------|--------------------------------------|
--------------------------------|--------------------------------------|
--0--0--0--0--0-----0-----0-----|--0--0--0--0--0-----0--0--0--0--0-----|
--0--0--0--0--0-----0-----0-----|--0--0--0--0--0-----0--0--0--0--0-----|


  PM PM PM PM PM    PM    PM          PM PM    PM PM       
  S  S  S  S  E  E  E  E  E  E     E  E  E  E  E  E  Q     
--------------------------------|-------------------------|
--------------------------------|-------------------------|
--------------------------------|-------------------------|
--------------------------------|--0--------0--------0----|
--0--0--0--0--0-----0-----0-----|--0--0--0--0--0--0--0----|
--0--0--0--0--0-----0-----0-----|--0--0--0--0--0--0--0----|


  PM PM PM PM PM    PM    PM       PM PM PM PM PM    PM PM PM PM PM     
  S  S  S  S  E  E  E  E  E  E     S  S  S  S  E  E  S  S  S  S  E  E   
--------------------------------|--------------------------------------|
--------------------------------|--------------------------------------|
--------------------------------|--------------------------------------|
--------------------------------|--------------------------------------|
--0--0--0--0--0-----0-----0-----|--0--0--0--0--0-----0--0--0--0--0-----|
--0--0--0--0--0-----0-----0-----|--0--0--0--0--0-----0--0--0--0--0-----|


  PM PM PM PM PM    PM    PM          PM PM    PM PM                           
  S  S  S  S  E  E  E  E  E  E     E  E  E  E  E  E  Q       W                 
--------------------------------|-------------------------|-------------------|
--------------------------------|-------------------------|-------------------|
--------------------------------|-------------------------|-------------------|
--------------------------------|--0--------0--------0----|--0----------------|
--0--0--0--0--0-----0-----0-----|--0--0--0--0--0--0--0----|--0----------------|
--0--0--0--0--0-----0-----0-----|--0--0--0--0--0--0--0----|--0----------------|


  W                   W                   W                 
-------------------|-------------------|-------------------|
-------------------|-------------------|-------------------|
-------------------|-------------------|-------------------|
--L----------------|--L----------------|--L----------------|
--L----------------|--L----------------|--L----------------|
--L----------------|--L----------------|--L----------------|


  E  E  E  E  E  E  E  E     E  E  E  E  E  E  E  E   
--------------------------|--------------------------|
--------------------------|--------------------------|
--7--7--7--7--7--7--7--7--|--7--7--7--7--7--7--7--7--|
--x--x--x--x--x--x--x--x--|--x--x--x--x--x--x--x--x--|
--5--5--5--5--5--5--5--5--|--5--5--5--5--5--5--5--5--|
--------------------------|--------------------------|


  E  E  E  E  E  E  E  E     E  E  E  E  E  E  E  E   
--------------------------|--------------------------|
--------------------------|--------------------------|
--9--9--9--9--9--9--9--9--|--9--9--9--9--9--9--9--9--|
--x--x--x--x--x--x--x--x--|--x--x--x--x--x--x--x--x--|
--7--7--7--7--7--7--7--7--|--7--7--7--7--7--7--7--7--|
--------------------------|--------------------------|


   E   E   E   E   E   E   E   E      E   E   E   E   E   E   E   E   
----------------------------------|----------------------------------|
----------------------------------|----------------------------------|
--10--10--10--10--10--10--10--10--|--10--10--10--10--10--10--10--10--|
---x---x---x---x---x---x---x---x--|---x---x---x---x---x---x---x---x--|
---8---8---8---8---8---8---8---8--|---8---8---8---8---8---8---8---8--|
----------------------------------|----------------------------------|


   E   E   E   E   E   E   E   E      E  E  E   E  E  E  E  E   
----------------------------------|----------------------------|
----------------------------------|----------------------------|
--12--12--12--12--12--12--12--12--|--10--9--7------5--7--5-----|
---x---x---x---x---x---x---x---x--|------------10-----------7--|
--10--10--10--10--10--10--10--10--|----------------------------|
----------------------------------|----------------------------|


  E  E  E  E  E  E  E  E     E  E  E  E  E  E  E  E   
--------------------------|--------------------------|
--------------------------|--------------------------|
--7--7--7--7--7--7--7--7--|--7--7--7--7--7--7--7--7--|
--x--x--x--x--x--x--x--x--|--x--x--x--x--x--x--x--x--|
--5--5--5--5--5--5--5--5--|--5--5--5--5--5--5--5--5--|
--------------------------|--------------------------|


  E  E  E  E  E  E  E  E     E  E  E  E  E  E  E  E   
--------------------------|--------------------------|
--------------------------|--------------------------|
--9--9--9--9--9--9--9--9--|--9--9--9--9--9--9--9--9--|
--x--x--x--x--x--x--x--x--|--x--x--x--x--x--x--x--x--|
--7--7--7--7--7--7--7--7--|--7--7--7--7--7--7--7--7--|
--------------------------|--------------------------|


   E   E   E   E   E   E   E   E      E   E   E   E   E   E   E   E   
----------------------------------|----------------------------------|
----------------------------------|----------------------------------|
--10--10--10--10--10--10--10--10--|--10--10--10--10--10--10--10--10--|
---x---x---x---x---x---x---x---x--|---x---x---x---x---x---x---x---x--|
---8---8---8---8---8---8---8---8--|---8---8---8---8---8---8---8---8--|
----------------------------------|----------------------------------|


   E   E   E   E   E   E   E   E      E  E  E   E  E  E  E  E   
----------------------------------|----------------------------|
----------------------------------|----------------------------|
--12--12--12--12--12--12--12--12--|--10--9--7------5--7--5-----|
---x---x---x---x---x---x---x---x--|------------10-----------7--|
--10--10--10--10--10--10--10--10--|----------------------------|
----------------------------------|----------------------------|


  PM PM PM PM PM   PM   PM      PM PM PM PM PM   PM PM PM PM PM    
  S  S  S  S  Q    Q    Q       S  S  S  S  Q    S  S  S  S  Q     
-----------------------------|------------------------------------|
-----------------------------|------------------------------------|
-----------------------------|------------------------------------|
-----------------------------|------------------------------------|
--0--0--0--0--0----0----0----|--0--0--0--0--0----0--0--0--0--0----|
--0--0--0--0--0----0----0----|--0--0--0--0--0----0--0--0--0--0----|


  PM PM PM PM PM   PM   PM      PM PM PM PM PM   PM PM PM PM PM    
  S  S  S  S  Q    Q    Q       S  S  S  S  Q    S  S  S  S  Q     
-----------------------------|------------------------------------|
-----------------------------|------------------------------------|
-----------------------------|------------------------------------|
-----------------------------|------------------------------------|
--0--0--0--0--0----0----0----|--0--0--0--0--0----0--0--0--0--0----|
--0--0--0--0--0----0----0----|--0--0--0--0--0----0--0--0--0--0----|


  PM PM PM PM PM   PM   PM      PM PM PM PM PM   PM PM PM PM PM    
  S  S  S  S  Q    Q    Q       S  S  S  S  Q    S  S  S  S  Q     
-----------------------------|------------------------------------|
-----------------------------|------------------------------------|
-----------------------------|------------------------------------|
-----------------------------|------------------------------------|
--0--0--0--0--0----0----0----|--0--0--0--0--0----0--0--0--0--0----|
--0--0--0--0--0----0----0----|--0--0--0--0--0----0--0--0--0--0----|


  PM PM PM PM PM   PM   PM      PM PM PM PM PM   PM PM PM PM PM    
  S  S  S  S  Q    Q    Q       S  S  S  S  Q    S  S  S  S  Q     
-----------------------------|------------------------------------|
-----------------------------|------------------------------------|
-----------------------------|------------------------------------|
-----------------------------|------------------------------------|
--0--0--0--0--0----0----0----|--0--0--0--0--0----0--0--0--0--0----|
--0--0--0--0--0----0----0----|--0--0--0--0--0----0--0--0--0--0----|


  PM PM PM PM PM   PM                               PM PM PM PM PM   PM         
  S  S  S  S  Q    Q    Q       W                   S  S  S  S  Q    Q    Q     
-----------------------------|-------------------|-----------------------------|
-----------------------------|-------------------|-----------------------------|
-----------------------------|-------------------|-----------------------------|
-----------------------------|-------------------|-----------------------------|
--0--0--0--0--0----0---------|-------------------|--0--0--0--0--0----0---------|
--0--0--0--0--0----0---------|-------------------|--0--0--0--0--0----0---------|


                      PM PM PM PM PM   PM                             
  W                   S  S  S  S  Q    Q    Q       W                 
-------------------|-----------------------------|-------------------|
-------------------|-----------------------------|-------------------|
-------------------|-----------------------------|-------------------|
-------------------|-----------------------------|-------------------|
-------------------|--0--0--0--0--0----0---------|-------------------|
-------------------|--0--0--0--0--0----0---------|-------------------|


  PM PM PM PM PM   PM                               PH      
  S  S  S  S  Q    Q    Q       E  E  E  E  E  E    Q       
-----------------------------|-----------------------------|
-----------------------------|-----------------------------|
-----------------------------|-----------------------------|
-----------------------------|--------------------<>4b~----|
--0--0--0--0--0----0---------|--0--5--4--3--2--------------|
--0--0--0--0--0----0----0----|--0--5--4--3--2--0-----------|


  PM PM                                     PM PM               
  E  E  H.              W                   E  E  H.            
---------------------|-------------------|---------------------|
---------------------|-------------------|---------------------|
---------------------|-------------------|---------------------|
---------------------|-------------------|---------------------|
--0--0--L------------|--L----------------|--0--0--L------------|
--0--0--L------------|--L----------------|--0--0--L------------|


                      PM PM                                   
  W                   E  E  H.              W                 
-------------------|---------------------|-------------------|
-------------------|---------------------|-------------------|
-------------------|---------------------|-------------------|
-------------------|---------------------|-------------------|
--L----------------|--0--0--L------------|--L----------------|
--L----------------|--0--0--L------------|--L----------------|


  PM PM                                                                        
  E  E  H.              E  E  E  E  E  E  E  E                                 
---------------------|--------------------------|-----|-----|-----|-----|-----|
---------------------|--------------------------|-----|-----|-----|-----|-----|
---------------------|--------------------------|-----|-----|-----|-----|-----|
---------------------|--------------0--0--0--0--|-----|-----|-----|-----|-----|
--0--0--L------------|--0--0--0--0--0--0--0--0--|-----|-----|-----|-----|-----|
--0--0--L------------|--0--0--0--0--0--0--0--0--|-----|-----|-----|-----|-----|


                     E   E   E   E   E   E   E   E   
-----|-----|-----|----------------------------------|
-----|-----|-----|----------------------------------|
-----|-----|-----|--14--14--14--14--14--14--14--14--|
-----|-----|-----|---x---x---x---x---x---x---x---x--|
-----|-----|-----|--12--12--12--12--12--12--12--12--|
-----|-----|-----|----------------------------------|


   E   E   E   E   E   E   E   E      E   E   E   E   E   E   E   E   
----------------------------------|----------------------------------|
----------------------------------|----------------------------------|
--14--14--14--14--14--14--14--14--|--12--12--12--12--12--12--12--12--|
---x---x---x---x---x---x---x---x--|---x---x---x---x---x---x---x---x--|
--12--12--12--12--12--12--12--12--|--10--10--10--10--10--10--10--10--|
----------------------------------|----------------------------------|


   E   E   E   E   E   E   E   E      E   E   E   E   E   E   E   E   
----------------------------------|----------------------------------|
----------------------------------|----------------------------------|
--12--12--12--12--12--12--12--12--|--15--15--15--15--15--15--15--15--|
---x---x---x---x---x---x---x---x--|---x---x---x---x---x---x---x---x--|
--10--10--10--10--10--10--10--10--|--13--13--13--13--13--13--13--13--|
----------------------------------|----------------------------------|


   E   E   E   E   E   E   E   E      E   E   E   E   E   E   E   E   
----------------------------------|----------------------------------|
----------------------------------|----------------------------------|
--15--15--15--15--15--15--15--15--|--14--14--14--14--14--14--14--14--|
---x---x---x---x---x---x---x---x--|---x---x---x---x---x---x---x---x--|
--13--13--13--13--13--13--13--13--|--12--12--12--12--12--12--12--12--|
----------------------------------|----------------------------------|


   E   E   E   E   E   E   E   E      E   E   E   E   E   E   E   E   
----------------------------------|----------------------------------|
----------------------------------|----------------------------------|
--14--14--14--14--14--14--14--14--|--14--14--14--14--14--14--14--14--|
---x---x---x---x---x---x---x---x--|---x---x---x---x---x---x---x---x--|
--12--12--12--12--12--12--12--12--|--12--12--12--12--12--12--12--12--|
----------------------------------|----------------------------------|


   E   E   E   E   E   E   E   E      E   E   E   E   E   E   E   E   
----------------------------------|----------------------------------|
----------------------------------|----------------------------------|
--14--14--14--14--14--14--14--14--|--12--12--12--12--12--12--12--12--|
---x---x---x---x---x---x---x---x--|---x---x---x---x---x---x---x---x--|
--12--12--12--12--12--12--12--12--|--10--10--10--10--10--10--10--10--|
----------------------------------|----------------------------------|


   E   E   E   E   E   E   E   E      E   E   E   E   E   E   E   E   
----------------------------------|----------------------------------|
----------------------------------|----------------------------------|
--12--12--12--12--12--12--12--12--|--15--15--15--15--15--15--15--15--|
---x---x---x---x---x---x---x---x--|---x---x---x---x---x---x---x---x--|
--10--10--10--10--10--10--10--10--|--13--13--13--13--13--13--13--13--|
----------------------------------|----------------------------------|


   E   E   E   E   E   E   E   E      E   E   E   E   E   E   E   E   
----------------------------------|----------------------------------|
----------------------------------|----------------------------------|
--15--15--15--15--15--15--15--15--|--14--14--14--14--14--14--14--14--|
---x---x---x---x---x---x---x---x--|---x---x---x---x---x---x---x---x--|
--13--13--13--13--13--13--13--13--|--12--12--12--12--12--12--12--12--|
----------------------------------|----------------------------------|


   E   E   E   E   E   E   E   E     W                   W                 
----------------------------------|-------------------|-------------------|
----------------------------------|-------------------|-------------------|
--14--14--14--14--14--14--14--14--|-------------------|-------------------|
---x---x---x---x---x---x---x---x--|--0----------------|--L----------------|
--12--12--12--12--12--12--12--12--|--0----------------|--L----------------|
----------------------------------|--0----------------|--L----------------|


            TP                                                           
  H         H            W                   E  E   E   E  E   E  E  E   
----------------------|-------------------|-----------------------------|
----------------------|-------------------|-----------------------------|
----------------------|-------------------|-----------------------------|
--L--------12\--------|--L----------------|--------10p--0---------------|
--L--------12\--------|--L----------------|----------------7p--5--------|
--L--------12\--------|--L----------------|--0--0-----------------0--0--|


   E   E  E   E  E   E  E   E     E  E   E   E  E   E  E  E   
-------------------------------|-----------------------------|
-------------------------------|-----------------------------|
-------------------------------|-----------------------------|
--12p--0---------5p--0--2p--0--|--------10p--0---------------|
----------7p--5----------------|----------------7p--5--------|
-------------------------------|--0--0-----------------0--0--|


                                 PM PM                PM PM  
  E  E  E  E   E   E   E   E     E  E   E   E  E   E  E  E   
------------------------------|-----------------------------|
------------------------------|-----------------------------|
--5--5--5--5--12--12--12--12--|-----------------------------|
--x--x--x--x---x---x---x---x--|--------10p--0---------------|
--3--3--3--3--10--10--10--10--|--0--0----------7p--5--0--0--|
------------------------------|--0--0-----------------0--0--|


                                  PM PM                PM PM  
   E   E  E   E  E   E  E   E     E  E   E   E  E   E  E  E   
-------------------------------|-----------------------------|
-------------------------------|-----------------------------|
-------------------------------|-----------------------------|
--12p--0---------5p--0--2p--0--|--------10p--0---------------|
----------7p--5----------------|--0--0----------7p--5--0--0--|
-------------------------------|--0--0-----------------0--0--|


                                 PM PM                PM PM  
  E  E  E  E   E   E   E   E     E  E   E   E  E   E  E  E   
------------------------------|-----------------------------|
------------------------------|-----------------------------|
--5--5--5--5--12--12--12--12--|-----------------------------|
--x--x--x--x---x---x---x---x--|--------10p--0---------------|
--3--3--3--3--10--10--10--10--|--0--0----------7p--5--0--0--|
------------------------------|--0--0-----------------0--0--|


                                  PM PM                PM PM  
   E   E  E   E  E   E  E   E     E  E   E   E  E   E  E  E   
-------------------------------|-----------------------------|
-------------------------------|-----------------------------|
-------------------------------|-----------------------------|
--12p--0---------5p--0--2p--0--|--------10p--0---------------|
----------7p--5----------------|--0--0----------7p--5--0--0--|
-------------------------------|--0--0-----------------0--0--|


                                 PM PM                PM PM  
  E  E  E  E   E   E   E   E     E  E   E   E  E   E  E  E   
------------------------------|-----------------------------|
------------------------------|-----------------------------|
--5--5--5--5--12--12--12--12--|-----------------------------|
--x--x--x--x---x---x---x---x--|--------10p--0---------------|
--3--3--3--3--10--10--10--10--|--0--0----------7p--5--0--0--|
------------------------------|--0--0-----------------0--0--|


                                  PM PM                PM PM  
   E   E  E   E  E   E  E   E     E  E   E   E  E   E  E  E   
-------------------------------|-----------------------------|
-------------------------------|-----------------------------|
-------------------------------|-----------------------------|
--12p--0---------5p--0--2p--0--|--------10p--0---------------|
----------7p--5----------------|--0--0----------7p--5--0--0--|
-------------------------------|--0--0-----------------0--0--|


                                 PM PM                PM PM  
  E  E  E  E   E   E   E   E     E  E   E   E  E   E  E  E   
------------------------------|-----------------------------|
------------------------------|-----------------------------|
--5--5--5--5--12--12--12--12--|-----------------------------|
--x--x--x--x---x---x---x---x--|--------10p--0---------------|
--3--3--3--3--10--10--10--10--|--0--0----------7p--5--0--0--|
------------------------------|--0--0-----------------0--0--|


                                  PM PM                PM PM  
   E   E  E   E  E   E  E   E     E  E   E   E  E   E  E  E   
-------------------------------|-----------------------------|
-------------------------------|-----------------------------|
-------------------------------|-----------------------------|
--12p--0---------5p--0--2p--0--|--------10p--0---------------|
----------7p--5----------------|--0--0----------7p--5--0--0--|
-------------------------------|--0--0-----------------0--0--|


                                                              PM        
  E  E  E  E   E   E   E   E     W                   H        H         
------------------------------|-------------------|--------------------|
------------------------------|-------------------|--------------------|
--5--5--5--5--12--12--12--12--|-------------------|--------------------|
--x--x--x--x---x---x---x---x--|--0----------------|--L-----------------|
--3--3--3--3--10--10--10--10--|--0----------------|--L--------0--------|
------------------------------|--0----------------|--L--------0--------|


  PM PM PM   PM PM PM      PM PM PM PM       PM PM PM PM    PM PM PM PM  
  S  S  S  S S  S  S  S E  S  E  S  E     E  S  E  S  E  E  S  E  S  E   
---------------------------------------|--------------------------------|
---------------------------------------|--------------------------------|
---------------------------------------|--------------------------------|
---------------------------------------|--------------------------------|
--0--0--0----0--0--0-------0--0--0--0--|-----0--0--0--0-----0--0--0--0--|
--0--0--0----0--0--0-------0--0--0--0--|-----0--0--0--0-----0--0--0--0--|


  PM PM PM   PM PM PM      PM PM PM PM       PM PM PM PM    PM PM PM PM  
  S  S  S  S S  S  S  S E  S  E  S  E     E  S  E  S  E  E  S  E  S  E   
---------------------------------------|--------------------------------|
---------------------------------------|--------------------------------|
---------------------------------------|--------------------------------|
---------------------------------------|--------------------------------|
--0--0--0----0--0--0-------0--0--0--0--|-----0--0--0--0-----0--0--0--0--|
--0--0--0----0--0--0-------0--0--0--0--|-----0--0--0--0-----0--0--0--0--|


  PM PM PM   PM PM PM      PM PM PM PM       PM PM PM PM    PM PM PM PM  
  S  S  S  S S  S  S  S E  S  E  S  E     E  S  E  S  E  E  S  E  S  E   
---------------------------------------|--------------------------------|
---------------------------------------|--------------------------------|
---------------------------------------|--------------------------------|
---------------------------------------|--------------------------------|
--0--0--0----0--0--0-------0--0--0--0--|-----0--0--0--0-----0--0--0--0--|
--0--0--0----0--0--0-------0--0--0--0--|-----0--0--0--0-----0--0--0--0--|


  PM PM PM   PM PM PM      PM PM PM PM       PM PM PM PM   NH        
  S  S  S  S S  S  S  S E  S  E  S  E     E  S  E  S  E    H         
---------------------------------------|----------------------------|
---------------------------------------|----------------------------|
---------------------------------------|----------------------------|
---------------------------------------|----------------------------|
--0--0--0----0--0--0-------0--0--0--0--|-----0--0--0--0--<>5--------|
--0--0--0----0--0--0-------0--0--0--0--|-----0--0--0--0-------------|


  PM PM PM   PM PM PM      PM PM PM PM       PM PM PM PM    PM PM PM PM  
  S  S  S  S S  S  S  S E  S  E  S  E     E  S  E  S  E  E  S  E  S  E   
---------------------------------------|--------------------------------|
---------------------------------------|--------------------------------|
---------------------------------------|--------------------------------|
---------------------------------------|--------------------------------|
--0--0--0----0--0--0-------0--0--0--0--|-----0--0--0--0-----0--0--0--0--|
--1--1--1----1--1--1-------1--1--1--1--|-----1--1--1--1-----1--1--1--1--|


  PM PM PM   PM PM PM      PM PM PM PM       PM PM PM PM    PM PM PM PM  
  S  S  S  S S  S  S  S E  S  E  S  E     E  S  E  S  E  E  S  E  S  E   
---------------------------------------|--------------------------------|
---------------------------------------|--------------------------------|
---------------------------------------|--------------------------------|
---------------------------------------|--------------------------------|
--0--0--0----0--0--0-------0--0--0--0--|-----0--0--0--0-----0--0--0--0--|
--1--1--1----1--1--1-------1--1--1--1--|-----1--1--1--1-----1--1--1--1--|


  PM PM PM   PM PM PM      PM PM PM PM       PM PM PM PM    PM PM PM PM  
  S  S  S  S S  S  S  S E  S  E  S  E     E  S  E  S  E  E  S  E  S  E   
---------------------------------------|--------------------------------|
---------------------------------------|--------------------------------|
---------------------------------------|--------------------------------|
---------------------------------------|--------------------------------|
--0--0--0----0--0--0-------0--0--0--0--|-----0--0--0--0-----0--0--0--0--|
--0--0--0----0--0--0-------0--0--0--0--|-----0--0--0--0-----0--0--0--0--|


  PM PM PM   PM PM PM      PM PM PM PM       PM PM PM PM    PM PM PM PM  
  S  S  S  S S  S  S  S E  S  E  S  E     E  S  E  S  E  E  S  E  S  E   
---------------------------------------|--------------------------------|
---------------------------------------|--------------------------------|
---------------------------------------|--------------------------------|
---------------------------------------|--------------------------------|
--0--0--0----0--0--0-------0--0--0--0--|-----0--0--0--0-----0--0--0--0--|
--0--0--0----0--0--0-------0--0--0--0--|-----0--0--0--0-----0--0--0--0--|


  Q    Q    H          
---------------------||
---------------------||
---------------------||
---------------------||
--0------------------||
--0------------------||






                                                           
Guitar 2



E||-------|-------|-------|-------|-------|-------|-------|-------|
B||-------|-------|-------|-------|-------|-------|-------|-------|
G||-------|-------|-------|-------|-------|-------|-------|-------|
D||-------|-------|-------|-------|-------|-------|-------|-------|
A||-------|-------|-------|-------|-------|-------|-------|-------|
D||-------|-------|-------|-------|-------|-------|-------|-------|


  Q    Q    E  E  Q       E  E  Q    E   E   E   E     Q    Q    E  E  Q     
-----------------------|----------------------------|-----------------------|
-----------------------|----------------------------|-----------------------|
-----------------------|----------------10--10--10--|-----------------------|
--8----8----8--8--8----|--8--8--8----8---x---x---x--|--8----8----8--8--8----|
--8----8----8--8--8----|--8--8--8----8---8---8---8--|--8----8----8--8--8----|
--8----8----8--8--8----|--8--8--8----8--------------|--8----8----8--8--8----|


  E  E  Q    E   E   E   E     Q     E   E   Q    E  E   
----------------------------|---------------------------|
----------------------------|---------------------------|
----------------10--10--10--|-------10--10--10----------|
--8--8--8----8---x---x---x--|--0-----x---x---x----0--0--|
--8--8--8----8---8---8---8--|--0-----8---8---8----0--0--|
--8--8--8----8--------------|--0------------------0--0--|


  Q     E   E   Q    E  E     Q     E   E   Q    E  E     Q    E  E  Q    Q     
---------------------------|---------------------------|-----------------------|
---------------------------|---------------------------|-----------------------|
-------10--10--10----------|-------10--10--10----------|-------9--9--9---------|
--L-----x---x---x----0--0--|--L-----x---x---x----0--0--|--L----x--x--x---------|
--L-----8---8---8----0--0--|--L-----8---8---8----0--0--|--L----7--7--7----0----|
--L------------------0--0--|--L------------------0--0--|--L---------------0----|


  Q    Q    E  E  E  E     E  E  Q    E  E  E  E     Q    Q    E  E  E  E   
------------------------|-------------------------|------------------------|
------------------------|-------------------------|------------------------|
------------------------|-------------------------|------------------------|
--3----3----3--3--3--3--|--L--3--3----3--3--3--3--|--5----5----5--5--5--5--|
--3----3----3--3--3--3--|--L--3--3----3--3--3--3--|--5----5----5--5--5--5--|
--3----3----3--3--3--3--|--L--3--3----3--3--3--3--|--5----5----5--5--5--5--|


  E  E  Q    E  E  E  E     Q     E   E   Q    E  E   
-------------------------|---------------------------|
-------------------------|---------------------------|
-------------------------|-------10--10--10----------|
--L--5--5----5--5--5--5--|--0-----x---x---x----0--0--|
--L--5--5----5--5--5--5--|--0-----8---8---8----0--0--|
--L--5--5----5--5--5--5--|--0------------------0--0--|


  Q     E   E   Q    E  E     Q     E   E   Q    E  E   
---------------------------|---------------------------|
---------------------------|---------------------------|
-------10--10--10----------|-------10--10--10----------|
--L-----x---x---x----0--0--|--L-----x---x---x----0--0--|
--L-----8---8---8----0--0--|--L-----8---8---8----0--0--|
--L------------------0--0--|--L------------------0--0--|


  Q    E  E  E  E  E  E     E  E  E  E  E  E  E  E     E  E  E  E  E  E  E  E   
-------------------------|--------------------------|--------------------------|
-------------------------|--------------------------|--------------------------|
-------9--9--9--9--9--9--|--7--7--7-----7-----7-----|--7-----7-----7--7--7-----|
--L----x--x--x--x--x--x--|--x--x--x-----x-----x-----|--x-----x-----x--x--x-----|
--L----7--7--7--7--7--7--|--5--5--5-----5-----5-----|--5-----5-----5--5--5-----|
--L----------------------|--------------------------|--------------------------|


  E  E  E  E  E  E  E  E     E  E  E  E  E  E  E  E   
--------------------------|--------------------------|
--------------------------|--------------------------|
--7--7--7-----7-----7-----|--7-----7-----7--7--7-----|
--x--x--x-----x-----x-----|--x-----x-----x--x--x-----|
--5--5--5-----5-----5-----|--5-----5-----5--5--5-----|
--------------------------|--------------------------|


  E  E  E  E  E  E  E  E      E   E   E  E  E  E  E  E   
--------------------------|-----------------------------|
--------------------------|-----------------------------|
--7--7--7--7--7--7--7--7--|--10--10--10--9--9--9--7--7--|
--x--x--x--x--x--x--x--x--|---x---x---x--x--x--x--x--x--|
--5--5--5--5--5--5--5--5--|---8---8---8--7--7--7--5--5--|
--------------------------|-----------------------------|


  E  E  E  E  E  E  E  E      E   E   E   E   E   E  E  E   
--------------------------|--------------------------------|
--------------------------|--------------------------------|
--3--3--3--3--3--3--3--3--|--10--10--10--10--10--10--9--9--|
--x--x--x--x--x--x--x--x--|---x---x---x---x---x---x--x--x--|
--1--1--1--1--1--1--1--1--|---8---8---8---8---7---7--7--7--|
--------------------------|--------------------------------|


  E  E  E  E  E  E  E  E      E   E   E  E  E  E  E  E   
--------------------------|-----------------------------|
--------------------------|-----------------------------|
--7--7--7--7--7--7--7--7--|--10--10--10--9--9--9--7--7--|
--x--x--x--x--x--x--x--x--|---x---x---x--x--x--x--x--x--|
--5--5--5--5--5--5--5--5--|---8---8---8--7--7--7--5--5--|
--------------------------|-----------------------------|


  E  E  E  E  E  E  E  E      E   E   E   E   E   E  E  E     W                 
--------------------------|--------------------------------|-------------------|
--------------------------|--------------------------------|-------------------|
--3--3--3--3--3--3--3--3--|--10--10--10--10--10--10--9--9--|-------------------|
--x--x--x--x--x--x--x--x--|---x---x---x---x---x---x--x--x--|--0----------------|
--1--1--1--1--1--1--1--1--|---8---8---8---8---7---7--7--7--|--0----------------|
--------------------------|--------------------------------|--0----------------|


  W                   W                   W                 
-------------------|-------------------|-------------------|
-------------------|-------------------|-------------------|
-------------------|-------------------|-------------------|
--L----------------|--L----------------|--L----------------|
--L----------------|--L----------------|--L----------------|
--L----------------|--L----------------|--L----------------|


  E  E  E  E  E  E  E  E     E  E  E  E  E  E  E  E   
--------------------------|--------------------------|
--------------------------|--------------------------|
--7--7--7--7--7--7--7--7--|--7--7--7--7--7--7--7--7--|
--7--7--7--7--7--7--7--7--|--7--7--7--7--7--7--7--7--|
--5--5--5--5--5--5--5--5--|--5--5--5--5--5--5--5--5--|
--------------------------|--------------------------|


  E  E  E  E  E  E  E  E     E  E  E  E  E  E  E  E   
--------------------------|--------------------------|
--------------------------|--------------------------|
--5--5--5--5--5--5--5--5--|--5--5--5--5--5--5--5--5--|
--5--5--5--5--5--5--5--5--|--5--5--5--5--5--5--5--5--|
--3--3--3--3--3--3--3--3--|--3--3--3--3--3--3--3--3--|
--------------------------|--------------------------|


  E  E  E  E  E  E  E  E     E  E  E  E  E  E  E  E   
--------------------------|--------------------------|
--------------------------|--------------------------|
--3--3--3--3--3--3--3--3--|--3--3--3--3--3--3--3--3--|
--3--3--3--3--3--3--3--3--|--3--3--3--3--3--3--3--3--|
--1--1--1--1--1--1--1--1--|--1--1--1--1--1--1--1--1--|
--------------------------|--------------------------|


  E  E  E  E  E  E  E  E     E  E  E  E  E   E  E  E    
--------------------------|----------------------------|
--------------------------|----------------------------|
--------------------------|--7-----7--9--9--10--9--7\--|
--5--5--5--5--5--5--5--5--|-----7----------------------|
--5--5--5--5--5--5--5--5--|----------------------------|
--5--5--5--5--5--5--5--5--|----------------------------|


  E  E  E  E  E  E  E  E     E  E  E  E  E  E  E  E   
--------------------------|--------------------------|
--------------------------|--------------------------|
--7--7--7--7--7--7--7--7--|--7--7--7--7--7--7--7--7--|
--7--7--7--7--7--7--7--7--|--7--7--7--7--7--7--7--7--|
--5--5--5--5--5--5--5--5--|--5--5--5--5--5--5--5--5--|
--------------------------|--------------------------|


  E  E  E  E  E  E  E  E     E  E  E  E  E  E  E  E   
--------------------------|--------------------------|
--------------------------|--------------------------|
--5--5--5--5--5--5--5--5--|--5--5--5--5--5--5--5--5--|
--5--5--5--5--5--5--5--5--|--5--5--5--5--5--5--5--5--|
--3--3--3--3--3--3--3--3--|--3--3--3--3--3--3--3--3--|
--------------------------|--------------------------|


  E  E  E  E  E  E  E  E     E  E  E  E  E  E  E  E   
--------------------------|--------------------------|
--------------------------|--------------------------|
--3--3--3--3--3--3--3--3--|--3--3--3--3--3--3--3--3--|
--3--3--3--3--3--3--3--3--|--3--3--3--3--3--3--3--3--|
--1--1--1--1--1--1--1--1--|--1--1--1--1--1--1--1--1--|
--------------------------|--------------------------|


  E  E  E  E  E  E  E  E     E  E  E  E  E   E  E  E    
--------------------------|----------------------------|
--------------------------|----------------------------|
--------------------------|--7-----7--9--9--10--9--7\--|
--5--5--5--5--5--5--5--5--|-----7----------------------|
--5--5--5--5--5--5--5--5--|----------------------------|
--5--5--5--5--5--5--5--5--|----------------------------|


  PM PM PM PM PM   PM   PM      PM PM PM PM PM   PM PM PM PM PM    
  S  S  S  S  Q    Q    Q       S  S  S  S  Q    S  S  S  S  Q     
-----------------------------|------------------------------------|
-----------------------------|------------------------------------|
-----------------------------|------------------------------------|
-----------------------------|------------------------------------|
--0--0--0--0--0----0----0----|--0--0--0--0--0----0--0--0--0--0----|
--0--0--0--0--0----0----0----|--0--0--0--0--0----0--0--0--0--0----|


  PM PM PM PM PM   PM   PM      PM PM PM PM PM   PM PM PM PM PM    
  S  S  S  S  Q    Q    Q       S  S  S  S  Q    S  S  S  S  Q     
-----------------------------|------------------------------------|
-----------------------------|------------------------------------|
-----------------------------|------------------------------------|
-----------------------------|------------------------------------|
--0--0--0--0--0----0----0----|--0--0--0--0--0----0--0--0--0--0----|
--0--0--0--0--0----0----0----|--0--0--0--0--0----0--0--0--0--0----|


  PM PM PM PM PM   PM   PM      PM PM PM PM PM   PM PM PM PM PM    
  S  S  S  S  Q    Q    Q       S  S  S  S  Q    S  S  S  S  Q     
-----------------------------|------------------------------------|
-----------------------------|------------------------------------|
-----------------------------|------------------------------------|
-----------------------------|------------------------------------|
--0--0--0--0--0----0----0----|--0--0--0--0--0----0--0--0--0--0----|
--0--0--0--0--0----0----0----|--0--0--0--0--0----0--0--0--0--0----|


  PM PM PM PM PM   PM   PM      PM PM PM PM PM   PM PM PM PM PM    
  S  S  S  S  Q    Q    Q       S  S  S  S  Q    S  S  S  S  Q     
-----------------------------|------------------------------------|
-----------------------------|------------------------------------|
-----------------------------|------------------------------------|
-----------------------------|------------------------------------|
--0--0--0--0--0----0----0----|--0--0--0--0--0----0--0--0--0--0----|
--0--0--0--0--0----0----0----|--0--0--0--0--0----0--0--0--0--0----|


  PM PM PM PM PM   PM                               PM PM PM PM PM   PM         
  S  S  S  S  Q    Q    Q       W                   S  S  S  S  Q    Q    Q     
-----------------------------|-------------------|-----------------------------|
-----------------------------|-------------------|-----------------------------|
-----------------------------|-------------------|-----------------------------|
-----------------------------|-------------------|-----------------------------|
--0--0--0--0--0----0---------|-------------------|--0--0--0--0--0----0---------|
--0--0--0--0--0----0---------|-------------------|--0--0--0--0--0----0---------|


                      PM PM PM PM PM   PM                             
  W                   S  S  S  S  Q    Q    Q       W                 
-------------------|-----------------------------|-------------------|
-------------------|-----------------------------|-------------------|
-------------------|-----------------------------|-------------------|
-------------------|-----------------------------|-------------------|
-------------------|--0--0--0--0--0----0---------|-------------------|
-------------------|--0--0--0--0--0----0---------|-------------------|


  PM PM PM PM PM   PM                               PM PM               
  S  S  S  S  Q    Q    Q       W                   E  E  H.            
-----------------------------|-------------------|---------------------|
-----------------------------|-------------------|---------------------|
-----------------------------|-------------------|---------------------|
-----------------------------|-------------------|---------------------|
--0--0--0--0--0----0---------|-------------------|--0--0--L------------|
--0--0--0--0--0----0---------|-------------------|--0--0--L------------|


                      PM PM                                   
  W                   E  E  H.              W                 
-------------------|---------------------|-------------------|
-------------------|---------------------|-------------------|
-------------------|---------------------|-------------------|
-------------------|---------------------|-------------------|
--L----------------|--0--0--L------------|--L----------------|
--L----------------|--0--0--L------------|--L----------------|


  PM PM                                     PM PM               
  E  E  H.              W                   E  E  H.            
---------------------|-------------------|---------------------|
---------------------|-------------------|---------------------|
---------------------|-------------------|---------------------|
---------------------|-------------------|---------------------|
--0--0--L------------|--L----------------|--0--0--L------------|
--0--0--L------------|--L----------------|--0--0--L------------|


  E  E  E  E  E  E  E  E                                                   
--------------------------|-----|-----|-----|-----|-----|-----|-----|-----|
--------------------------|-----|-----|-----|-----|-----|-----|-----|-----|
--------------------------|-----|-----|-----|-----|-----|-----|-----|-----|
--------------0--0--0--0--|-----|-----|-----|-----|-----|-----|-----|-----|
--0--0--0--0--0--0--0--0--|-----|-----|-----|-----|-----|-----|-----|-----|
--0--0--0--0--0--0--0--0--|-----|-----|-----|-----|-----|-----|-----|-----|


  E  E  E  E  E  E  E  E     E  E  E  E  E  E  E  E   
--------------------------|--------------------------|
--------------------------|--------------------------|
--------------------------|--------------------------|
--0--0--0--0--0--0--0--0--|--0--0--0--0--0--0--0--0--|
--0--0--0--0--0--0--0--0--|--0--0--0--0--0--0--0--0--|
--0--0--0--0--0--0--0--0--|--0--0--0--0--0--0--0--0--|


  E  E  E  E  E  E  E  E     E  E  E  E  E  E  E  E   
--------------------------|--------------------------|
--------------------------|--------------------------|
--------------------------|--------------------------|
--3--3--3--3--3--3--3--3--|--3--3--3--3--3--3--3--3--|
--3--3--3--3--3--3--3--3--|--3--3--3--3--3--3--3--3--|
--3--3--3--3--3--3--3--3--|--3--3--3--3--3--3--3--3--|


  E  E  E  E  E  E  E  E     E  E  E  E  E  E  E  E   
--------------------------|--------------------------|
--------------------------|--------------------------|
--------------------------|--------------------------|
--5--5--5--5--5--5--5--5--|--5--5--5--5--5--5--5--5--|
--5--5--5--5--5--5--5--5--|--5--5--5--5--5--5--5--5--|
--5--5--5--5--5--5--5--5--|--5--5--5--5--5--5--5--5--|


  E  E  E  E  E  E  E  E     E  E  E  E  E  E  E  E   
--------------------------|--------------------------|
--------------------------|--------------------------|
--------------------------|--------------------------|
--8--8--8--8--8--8--8--8--|--8--8--8--8--8--8--8--8--|
--8--8--8--8--8--8--8--8--|--8--8--8--8--8--8--8--8--|
--8--8--8--8--8--8--8--8--|--8--8--8--8--8--8--8--8--|


  E  E  E  E  E  E  E  E     E  E  E  E  E  E  E  E   
--------------------------|--------------------------|
--------------------------|--------------------------|
--------------------------|--------------------------|
--0--0--0--0--0--0--0--0--|--0--0--0--0--0--0--0--0--|
--0--0--0--0--0--0--0--0--|--0--0--0--0--0--0--0--0--|
--0--0--0--0--0--0--0--0--|--0--0--0--0--0--0--0--0--|


  E  E  E  E  E  E  E  E     E  E  E  E  E  E  E  E   
--------------------------|--------------------------|
--------------------------|--------------------------|
--------------------------|--------------------------|
--3--3--3--3--3--3--3--3--|--3--3--3--3--3--3--3--3--|
--3--3--3--3--3--3--3--3--|--3--3--3--3--3--3--3--3--|
--3--3--3--3--3--3--3--3--|--3--3--3--3--3--3--3--3--|


  E  E  E  E  E  E  E  E     E  E  E  E  E  E  E  E   
--------------------------|--------------------------|
--------------------------|--------------------------|
--------------------------|--------------------------|
--5--5--5--5--5--5--5--5--|--5--5--5--5--5--5--5--5--|
--5--5--5--5--5--5--5--5--|--5--5--5--5--5--5--5--5--|
--5--5--5--5--5--5--5--5--|--5--5--5--5--5--5--5--5--|


  E  E  E  E  E  E  E  E     E  E  E  E  E  E  E  E     W                 
--------------------------|--------------------------|-------------------|
--------------------------|--------------------------|-------------------|
--------------------------|--------------------------|-------------------|
--8--8--8--8--8--8--8--8--|--8--8--8--8--8--8--8--8--|--0----------------|
--8--8--8--8--8--8--8--8--|--8--8--8--8--8--8--8--8--|--0----------------|
--8--8--8--8--8--8--8--8--|--8--8--8--8--8--8--8--8--|--0----------------|


                       TP                                      
  W                    W                     W                 
-------------------|---------------------|--------------------|
-------------------|---------------------|--------------------|
-------------------|---------------------|--------------------|
--L----------------|--12\----------------|---L----------------|
--L----------------|--12\----------------|---L----------------|
--L----------------|--12\----------------|---L----------------|


  PM PM                                                        
  E  E  Q    H           W                   W                 
----------------------|-------------------|-------------------|
----------------------|-------------------|-------------------|
----------------------|-------------------|-------------------|
----------------------|-------------------|-------------------|
----------------------|-------------------|-------------------|
--0--0----------------|-------------------|-------------------|


                                 PM PM                PM PM  
  E  E  E  E   E   E   E   E     E  E   E   E  E   E  E  E   
------------------------------|-----------------------------|
------------------------------|-----------------------------|
--5--5--5--5--12--12--12--12--|-----------------------------|
--x--x--x--x---x---x---x---x--|--------10p--0---------------|
--3--3--3--3--10--10--10--10--|--0--0----------7p--5--0--0--|
------------------------------|--0--0-----------------0--0--|


                                  PM PM                PM PM  
   E   E  E   E  E   E  E   E     E  E   E   E  E   E  E  E   
-------------------------------|-----------------------------|
-------------------------------|-----------------------------|
-------------------------------|-----------------------------|
--12p--0---------5p--0--2p--0--|--------10p--0---------------|
----------7p--5----------------|--0--0----------7p--5--0--0--|
-------------------------------|--0--0-----------------0--0--|


                                 PM PM                PM PM  
  E  E  E  E   E   E   E   E     E  E   E   E  E   E  E  E   
------------------------------|-----------------------------|
------------------------------|-----------------------------|
--5--5--5--5--12--12--12--12--|-----------------------------|
--x--x--x--x---x---x---x---x--|--------10p--0---------------|
--3--3--3--3--10--10--10--10--|--0--0----------7p--5--0--0--|
------------------------------|--0--0-----------------0--0--|


                                  PM PM                PM PM  
   E   E  E   E  E   E  E   E     E  E   E   E  E   E  E  E   
-------------------------------|-----------------------------|
-------------------------------|-----------------------------|
-------------------------------|-----------------------------|
--12p--0---------5p--0--2p--0--|--------10p--0---------------|
----------7p--5----------------|--0--0----------7p--5--0--0--|
-------------------------------|--0--0-----------------0--0--|


                                 PM PM                PM PM  
  E  E  E  E   E   E   E   E     E  E   E   E  E   E  E  E   
------------------------------|-----------------------------|
------------------------------|-----------------------------|
--5--5--5--5--12--12--12--12--|-----------------------------|
--x--x--x--x---x---x---x---x--|--------10p--0---------------|
--3--3--3--3--10--10--10--10--|--0--0----------7p--5--0--0--|
------------------------------|--0--0-----------------0--0--|


                                  PM PM                PM PM  
   E   E  E   E  E   E  E   E     E  E   E   E  E   E  E  E   
-------------------------------|-----------------------------|
-------------------------------|-----------------------------|
-------------------------------|-----------------------------|
--12p--0---------5p--0--2p--0--|--------10p--0---------------|
----------7p--5----------------|--0--0----------7p--5--0--0--|
-------------------------------|--0--0-----------------0--0--|


                                 PM PM                PM PM  
  E  E  E  E   E   E   E   E     E  E   E   E  E   E  E  E   
------------------------------|-----------------------------|
------------------------------|-----------------------------|
--5--5--5--5--12--12--12--12--|-----------------------------|
--x--x--x--x---x---x---x---x--|--------10p--0---------------|
--3--3--3--3--10--10--10--10--|--0--0----------7p--5--0--0--|
------------------------------|--0--0-----------------0--0--|


                                  PM PM                PM PM  
   E   E  E   E  E   E  E   E     E  E   E   E  E   E  E  E   
-------------------------------|-----------------------------|
-------------------------------|-----------------------------|
-------------------------------|-----------------------------|
--12p--0---------5p--0--2p--0--|--------10p--0---------------|
----------7p--5----------------|--0--0----------7p--5--0--0--|
-------------------------------|--0--0-----------------0--0--|


                                                              PM        
  E  E  E  E   E   E   E   E     W                   H        H         
------------------------------|-------------------|--------------------|
------------------------------|--0----------------|--L-----------------|
--5--5--5--5--12--12--12--12--|--0----------------|--L-----------------|
--x--x--x--x---x---x---x---x--|--0----------------|--L-----------------|
--3--3--3--3--10--10--10--10--|--0----------------|--L--------0--------|
------------------------------|--0----------------|--L--------0--------|


  PM PM PM   PM PM PM      PM PM PM PM       PM PM PM PM    PM PM PM PM  
  S  S  S  S S  S  S  S E  S  E  S  E     E  S  E  S  E  E  S  E  S  E   
---------------------------------------|--------------------------------|
---------------------------------------|--------------------------------|
---------------------------------------|--------------------------------|
---------------------------------------|--------------------------------|
--0--0--0----0--0--0-------0--0--0--0--|-----0--0--0--0-----0--0--0--0--|
--0--0--0----0--0--0-------0--0--0--0--|-----0--0--0--0-----0--0--0--0--|


  PM PM PM   PM PM PM      PM PM PM PM       PM PM PM PM    PM PM PM PM  
  S  S  S  S S  S  S  S E  S  E  S  E     E  S  E  S  E  E  S  E  S  E   
---------------------------------------|--------------------------------|
---------------------------------------|--------------------------------|
---------------------------------------|--------------------------------|
---------------------------------------|--------------------------------|
--0--0--0----0--0--0-------0--0--0--0--|-----0--0--0--0-----0--0--0--0--|
--0--0--0----0--0--0-------0--0--0--0--|-----0--0--0--0-----0--0--0--0--|


  PM PM PM   PM PM PM      PM PM PM PM       PM PM PM PM    PM PM PM PM  
  S  S  S  S S  S  S  S E  S  E  S  E     E  S  E  S  E  E  S  E  S  E   
---------------------------------------|--------------------------------|
---------------------------------------|--------------------------------|
---------------------------------------|--------------------------------|
---------------------------------------|--------------------------------|
--0--0--0----0--0--0-------0--0--0--0--|-----0--0--0--0-----0--0--0--0--|
--0--0--0----0--0--0-------0--0--0--0--|-----0--0--0--0-----0--0--0--0--|


  PM PM PM   PM PM PM      PM PM PM PM       PM PM PM PM   NH        
  S  S  S  S S  S  S  S E  S  E  S  E     E  S  E  S  E    H         
---------------------------------------|----------------------------|
---------------------------------------|----------------------------|
---------------------------------------|----------------------------|
---------------------------------------|-----------------<>5--------|
--0--0--0----0--0--0-------0--0--0--0--|-----0--0--0--0-------------|
--0--0--0----0--0--0-------0--0--0--0--|-----0--0--0--0-------------|


  PM PM PM   PM PM PM      PM PM PM PM       PM PM PM PM    PM PM PM PM  
  S  S  S  S S  S  S  S E  S  E  S  E     E  S  E  S  E  E  S  E  S  E   
---------------------------------------|--------------------------------|
---------------------------------------|--------------------------------|
---------------------------------------|--------------------------------|
---------------------------------------|--------------------------------|
--0--0--0----0--0--0-------0--0--0--0--|-----0--0--0--0-----0--0--0--0--|
--1--1--1----1--1--1-------1--1--1--1--|-----1--1--1--1-----1--1--1--1--|


  PM PM PM   PM PM PM      PM PM PM PM       PM PM PM PM    PM PM PM PM  
  S  S  S  S S  S  S  S E  S  E  S  E     E  S  E  S  E  E  S  E  S  E   
---------------------------------------|--------------------------------|
---------------------------------------|--------------------------------|
---------------------------------------|--------------------------------|
---------------------------------------|--------------------------------|
--0--0--0----0--0--0-------0--0--0--0--|-----0--0--0--0-----0--0--0--0--|
--1--1--1----1--1--1-------1--1--1--1--|-----1--1--1--1-----1--1--1--1--|


  PM PM PM   PM PM PM      PM PM PM PM       PM PM PM PM    PM PM PM PM  
  S  S  S  S S  S  S  S E  S  E  S  E     E  S  E  S  E  E  S  E  S  E   
---------------------------------------|--------------------------------|
---------------------------------------|--------------------------------|
---------------------------------------|--------------------------------|
---------------------------------------|--------------------------------|
--0--0--0----0--0--0-------0--0--0--0--|-----0--0--0--0-----0--0--0--0--|
--0--0--0----0--0--0-------0--0--0--0--|-----0--0--0--0-----0--0--0--0--|


  PM PM PM   PM PM PM      PM PM PM PM       PM PM PM PM    PM PM PM PM  
  S  S  S  S S  S  S  S E  S  E  S  E     E  S  E  S  E  E  S  E  S  E   
---------------------------------------|--------------------------------|
---------------------------------------|--------------------------------|
---------------------------------------|--------------------------------|
---------------------------------------|--------------------------------|
--0--0--0----0--0--0-------0--0--0--0--|-----0--0--0--0-----0--0--0--0--|
--0--0--0----0--0--0-------0--0--0--0--|-----0--0--0--0-----0--0--0--0--|


  Q    Q    H          
---------------------||
---------------------||
---------------------||
---------------------||
--0------------------||
--0------------------||




Tap to rate this tab
 
# A B C D E F G H I J K L M N O P Q R S T U V W X Y Z