Song name
# A B C D E F G H I J K L M N O P Q R S T U V W X Y Z

The Devil Wears Prada - Hey John Whats Your Name Again tab

HEY JOHN, WHATS YOUR NAME AGAIN?
TDWP

Tabbed by: dtanoer
Email:dtanoer@yahoo.com



Tuning:Drop D (D A D G B E)

Intro - 0:00-0:09
"The concept of fashion is the one to blame:"
e|-------------------------------------------|
B|-------------------------------------------|
G|-------------------------------------------|
d|-0~------8~------5~-----0~------10~----10~-|
A|-0~------8~------5~-----0~------8~-----8~--|
D|-0~------8~------5~-----0~------8~-----8~--|


0:10-0:19
"Painting the portrait of conviction-less existence"
e|-------------------------------------------------------------|
B|-------------------------------------------------------------|
G|-------------------------------------------------------------|
d|-------------------------------------------------------------|
A|-5---7----8p7--4---5---7p5---5---7---8p7--13-12-10-0-7-8-10--|
D|--000--000---00-000-000----00-000-000------------------------|
P.M ...  ...   .. ... ...    .. ... ...


0:20-0:27
Well, it must be difficult,
     
Guitar 1
e|------|
B|-1010-|
G|-x-x--| (x24)
d|-8-8--|
A|------|
D|------|

Guitar 2
e|---------------------------|
B|---------------------------|
G|-10-------12-------9-------|
d|-x--(x16)-x--(x16)-x-(x16)-|
A|-8--------10-------7-------|
D|---------------------------|


0:28-0:30
Being so gorgeous
e|-----------|
B|-----------|
G|-----------|
d|--------0~-|
A|-0-0-00-0~-|
D|-0-0-00-0~-|
P.M. . ..


0:30-0:48
Well it must be difficult, claiming to be the kings and queens
e|---------------------------------------------------------|
B|---------------------------------------------------------|
G|---------------------------------------------------------|
d|-8-88888888-8-88888888-10-101010101010-10-10101010101010-|
A|-8-88888888-8-88888888-10-101010101010-10-10101010101010-|
D|-8-88888888-8-88888888-10-101010101010-10-10101010101010-|

e|-------------------------------|
B|-------------------------------|
G|-------------------------------|
d|-5-55555555-0-0000000-5-555555-|
A|-5-55555555-0-0000000-5-555555-|
D|-5-55555555-0-0000000-5-555555-|

e|----------------------------------------------------------------------|
B|----------------------------------------------------------------------|
G|----------------------------------------------------------------------|
d|-8-888888888-8-88888888-10-10101010-10-10101010-5-55555555-5-55555555-|
A|-8-888888888-8-88888888-10-10101010-10-10101010-5-55555555-5-55555555-|
D|-8-888888888-8-88888888-10-10101010-10-10101010-5-55555555-5-55555555-|

0:48-0:51
e|-----------|
B|-----------|
G|-----------|
d|--------0~-|
A|-0-0-00-0~-|
D|-0-0-00-0~-|
P.M. . ..

0:51-1:11
This shall pass, megalomania
e|--------------------------------------|
B|--------------------------------------|
G|----------------------------8888-7777-|
d|----------------------------xxxx-xxxx-|
A|-0-13vb-0-0-------0-13vb-0--6666-5555-|
D|-0--------0-7vb-0-0-------------------|

played one after another, not at the same time
e|---------------------------------------------|
B|---------------------------------------------|
G|---------------------------12121212-11111111-|
d|---------------------------x-x-x-x--x-x-x-x--|
A|-0-13vb-0-0-----0---13vb-0-10101010-9-9-9-9--|
D|-0--------0-7vb-0-0--------------------------|

1:11-1:19
     
e|----|
B|-10-|
G|-x--| Strum freely
d|-8--|
A|----|
D|----|

At 1:14...
Guitar 2
e|----|
B|----|
G|----|
d|-0~-|
A|-0~-|
D|-0~-|

1:22-1:32
Congratulations on mutilation
e|------------------------------------|
B|------------------------------------|
G|------------------------------------|
d|------------------------------------|
A|-0~--00~--0~---0~---000-000-000-000-|
D|-0~--00~--0~---0~---000-000-000-000-|
P.M.   ..   .    .    ... ... ... ...

1:32-1:52
for a life, for a life, life
e|-------------------------------|
B|-------------------------------|
G|-------------------------------|
d|-------------------------------|
A|-000-000----00-000-000-000-000-|
D|-000-000----00-000-000-000-000-|
P.M... ...    .. ... ... ... ...

1:42-1:52
Life, life
e|-----------------------------------|
B|-----------------------------------|
G|-7-------9-------12-------15-------|
d|-x-(x16)-x-(x16)-x--(x16)-x--(x16)-|
A|-5-------7-------10-------13-------|
D|-----------------------------------|


1:52-2:34
Im going to hope for you, im going to pray for you
Guitar 1                   x4
e|--------------------------|
B|--------------------------|
G|--------------------------|
d|-8-------10-------5-------|
A|-8-(x16)-10-(x16)-5-(x32)-|
D|-8-------10-------5-------|

Guitar 2
Come in at 2:03                                                           x3
e|-------------------------------------------------------------------------|
B|-------------------------------------------------------------------------|
G|-10-----12------14----9------10-----12-----7------9------12------17------|
d|-x-(x8)-x-(x4)--x(x4)-x-(x8)-x-(x4)-x-(x4)-x-(x8)-x-(x4)-x--(x4)-x-(x16)-|
A|-8------10------12----7------8------10-----5------7------10------15------|
D|-------------------------------------------------------------------------|

2:35-2:44
We all find ourselves terribly weak
e|-------------------------------------------------|
B|-------------------------------------------------|
G|-------14------------15------------14------------|
d|-0-0-0-x--(x8)-0-0-0-x--(x8)-0-0-0-x--(x8)-0-0-0-|
A|-0-0-0-12------0-0-0-13------0-0-0-12------0-0-0-|
D|-0-0-0---------0-0-0---------0-0-0---------0-0-0-|

2:44-2:46
e|-------------------------|
B|-15-14-------------------|
G|-------15-14-------------|
d|-------------15-14-------|
A|-------------------15-14-|
D|-------------------------|

2:46-2:58
Heres an offering
e|-------------------|
B|-------------------|
G|-------------------|
d|-------------------|
A|-000--000000-0-0-0-|
D|-000--000000-0-0-0-|
P.M...  ...... . . .

2:59
e|--------------------|
B|--------------------|
G|--------------------|
d|--------------------|   ??
A|-10h12p8p0-8h10p7p0-|
D|--------------------|

2:59-Done.
Offering.
e|-------------------------------------------------------------------------|
B|-------------------------------------------------------------------------|
G|-------------------------------------------------------------------------|
d|-------------------------------------------------------------------------|
A|-0000-000000-0-0-0-3-2-1-0000-000000-0-0-0-------0000-000000-0-0-0-3-2-1-|
D|-0000-000000-0-0-0-3-2-1-0000-000000-0-0-0-<3b^>-0000-000000-0-0-0-3-2-1-|
P.M.... ...... . . . . . . .... ...... . . .       .... ...... . . . . . .

e|--------------------------|
B|--------------------------|
G|--------------------------|
d|--------------------------|
A|-0000-000000-0-0-0-<3vb^>-|
D|-0000-000000-0-0-0--------|
P.M.... ...... . . .




| /  slide up
| \  slide down.
| vb vibrato
| b^ bend up
| h  hammer-on
| p  pull-off
| ~  let ring
| +  harmonic
| <> pinch harmonic
| x  dead note
============================================================================
Tap to rate this tab
# A B C D E F G H I J K L M N O P Q R S T U V W X Y Z