Song name
# A B C D E F G H I J K L M N O P Q R S T U V W X Y Z

The Devil Wears Prada - Untidaled tab

Tabbed by: smallen
Email: allensam83@yahoo.com

Tuning:Drop B 

So i noticed there was no tab for this song yet so u decided to tab it. 
this song is hella fun to play kinda got some tricky parts but overall not too
hard, enjoy :)

0:00-0:10
|-----------------------------------------------------|
|-----------------------------------------------------|
|-----------------------------------------------------|
|--1---0---4p3---1---3/5------------------------------|x2 
|--1-0-0-0-4p3-0-1-0-1/3-0-0-0-5-0-5-0-5-0-5-0-5-0-5--|
|----0-0-0-4p3-0-1-0-----0-0-0-6-0-6-0-6-0-6-0-6-0-6--|
     .   .     .   .     . . .   .   .   .   .   .

0:10-0:17
|---------------------------------------------------|
|----------------------------------------------<5>--|
|----------------------------------------------<5>--|
|------------------------------------------1-1-<5>--|
|--5-5------5-5-5------5-5-----------------1-1------|
|-060600000060606000000606000000-1-1h4-4p1----------|
  . . ...... . . ...... . ......  

0:17-0:21
|---------------------------------------|
|---------------------------------------|
|---------------------------------------|
|--------------------------1-1-1-1-1-1--|
|--00000---0-0-0---00000---1-1-1-1-1-1--|
|--00000---0-0-0---00000---1-1-1-1-1-1--|
   .....   . . .   .....

0:21-0:33
|-------------------------------------------------|
|-------------------------------------------------|
|-------------------------------------------------|
|--5-5-0-0-0-0-1~-1-1-1-1-5-5-0-0-0-0-1~-1-4-4-4--|x2
|--5-5-0-0-0-0-1~-1-1-1-1-5-5-0-0-0-0-1~-1-4-4-4--|
|--5-5-0-0-0-0-1~-1-1-1-1-5-5-0-0-0-0-1~-1-4-4-4--|


0:33-0:43
|-------------------------------------------------------|
|-------------------------------------------------------|
|-------------------------------------------------------|
|----------------------3-3-3-3-3-3-8-8-8-8-10-10-10-10--|x2
|--0-0--0-0-0-0--0-0---3-3-3-3-3-3-8-8-8-8-10-10-10-10--|
|--0-0--0-0-0-0--0-0---3-3-3-3-3-3-8-8-8-8-10-10-10-10--|
   . .  . . . .  . .

0:43-0:48
|-------------------------------------------------------------|
|-------------------------------------------------------------|
|--7-7-7-7-7-7-5-5-5-5-5-5-10-10-10-10-10-10-3-3-3-3-5-5-5-5--|
|--x-x-x-x-x-x-x-x-x-x-x-x-x--x--x--x--x--x--x-x-x-x-x-x-x-x--|
|--5-5-5-5-5-5-3-3-3-3-3-3-8--8--8--8--8--8--1-1-1-1-3-3-3-3--|
|-------------------------------------------------------------|

0:48-0:53
|-----------------------------------------------|
|-----------------------------------------------|
|-----------------------------------------------|
|----------------------3-3-3-3-3-3-1-1-1-1-1-1--|
|--0-0--0-0-0-0--0-0---3-3-3-3-3-3-1-1-1-1-1-1--|
|--0-0--0-0-0-0--0-0---3-3-3-3-3-3-1-1-1-1-1-1--|
   . .  . . . .  . .

0:53-0:55
|------------|
|------------|
|-7----------|
|-x----------|
|-5-000-000--|
|---000-000--|
    ... ...

0:55-1:05
|---------------------------------------------------------------------|
|---------------------------------------------------------------------|
|---------------------------------------------------------------------|
|---------------------------------------------------------------------|x2
|-000-000-000-000---000--------------000-000-000-000-000--------------|
|-000-000-000-000---000--1-1-1h4-4p1-000-000-000-000-000-4-4-1-1-1p0--|
  ... ... ... ...   ...              ... ... ... ... ...

1:05-1:16
|--------------------------------------------------------|
|--------------------------------------------------------|
|--------------------------------------------------------|
|-1---------------------------------------1-1-1-1/4-4-4--|
|-1-000-000-000-5-0-5-0-5-0-5-0-0-0-0-0-0-1-1-1-1/4-4-4--|
|---000-000-000-6-0-6-0-6-0-6-0-0-0-0-0-0-1-1-1-1/4-4-4--|
    ... ... ...   .   .   .   . . . . . .
|------------------------------------------------------------|
|------------------------------------------------------------|
|------------------------------------------------------------|
|-1-------------------------------------------1-1-1-1/8-8-8--|
|-1-000-000-000-5-0-5-0-5-0-5-0-0-0-0-000-0-0-1-1-1-1/8-8-8--|
|---000-000-000-6-0-6-0-6-0-6-0-0-0-0-000-0-0-1-1-1-1/8-8-8--|
    ... ... ...   .   .   .   . . . . ... . .

1:16-1:27
|-----------------------------------------------------|
|-----------------------------------------------------|
|-----------------------------------------------------|
|--1---0---4p3---1---3/5------------------------------|x2 
|--1-0-0-0-4p3-0-1-0-1/3-0-0-0-5-0-5-0-5-0-5-0-5-0-5--|
|----0-0-0-4p3-0-1-0-----0-0-0-6-0-6-0-6-0-6-0-6-0-6--|
     .   .     .   .     . . .   .   .   .   .   .

1:27-1:32
|--8-8----8-8--|
|--5-5----5-5--|
|--7-7----7-7--|
|--------------|
|--------------|
|--------------|

1:32-1:54
|------------------------------------------------------------------------------|
|------------------------------------------------------------------------------|
|------------------------------------------------------------------------------|
|------------------------------------------------------------------------------|
|---------10-10---------10-10-8-8-8-8---------10-10---------10-10-12-12-12-12--|
|-0-0-0-0-------0-0-0-0---------------0-0-0-0-------0-0-0-0--------------------|

|-----------------------------------------------------------------|
|-----------------------------------------------------------------|
|-----------------------------------------------------------------|
|--------------12-------12-----------------8-7-5------------------|
|--------------------------------------------------------8-8-5-5--|
|--8-8-8-8-8-8----8-8-8----8-8-8-8-5-5-5-5-------5-5-5-5----------|
   . . . . . .    . . .    . . . . . . . .       . . . .
|------------------------------------------------------------------------------|
|------------------------------------------------------------------------------|
|------------------------------------------------------------------------------|
|-----------------------------------------------------------------10-10-10-10--|
|---------10-10---------10-10-8-8-8-8---------10-10---------10-10--------------|
|-0-0-0-0-------0-0-0-0---------------0-0-0-0-------0-0-0-0--------------------|

|-----------------------------------------------------------------|
|-----------------------------------------------------------------|
|-----------------------------------------------------------------|
|--------------12-------12-----------------8-7-5------------------|
|--------------------------------------------------------8-8-5-5--|
|--8-8-8-8-8-8----8-8-8----8-8-8-8-5-5-5-5-------5-5-5-5----------|
   . . . . . .    . . .    . . . . . . . .       . . . .

1:54-1:58
|-----------------------------------------|
|-----------------------------------------|
|-----------------------------------------|
|-0~-----------------0~-------------------|
|-0~-0-0-0-0-0-0-0-0-0~-0-0-0-0-0-0-0-0---|
|-0~-0-0-0-0-0-0-0-0-0~-0-0-0-0-0-0-0-0---|
     . . . . . . . .    . . . . . . . .

1:58-2:09
|-------------------------------------------------------|
|-------------------------------------------------------|
|-------------------------------------------------------|
|----------------------3-3-3-3-3-3-8-8-8-8-10-10-10-10--|x2
|--0-0--0-0-0-0--0-0---3-3-3-3-3-3-8-8-8-8-10-10-10-10--|
|--0-0--0-0-0-0--0-0---3-3-3-3-3-3-8-8-8-8-10-10-10-10--|
   . .  . . . .  . .

2:09-2:14
|-------------------------------------------------------------|
|-------------------------------------------------------------|
|--7-7-7-7-7-7-5-5-5-5-5-5-10-10-10-10-10-10-3-3-3-3-5-5-5-5--|
|--x-x-x-x-x-x-x-x-x-x-x-x-x--x--x--x--x--x--x-x-x-x-x-x-x-x--|
|--5-5-5-5-5-5-3-3-3-3-3-3-8--8--8--8--8--8--1-1-1-1-3-3-3-3--|
|-------------------------------------------------------------|


2:14-2:19
|-----------------------------------------------|
|-----------------------------------------------|
|-----------------------------------------------|
|----------------------3-3-3-3-3-3-1-1-1-1-1-1--|
|--0-0--0-0-0-0--0-0---3-3-3-3-3-3-1-1-1-1-1-1--|
|--0-0--0-0-0-0--0-0---3-3-3-3-3-3-1-1-1-1-1-1--|
   . .  . . . .  . .

2:19-2:28
|-----------------------------------------------------|
|-----------------------------------------------------|
|-----------------------------------------------------|
|--1---0---4p3---1------------------------------------|
|--1-0-0-0-4p3-0-1-0-0-0-0-0-0-0-0-0-0-0-0-5-0-5-0-5--|
|----0-0-0-4p3-0-1-0-0-0-0-0-0-0-0-0-0-0-0-6-0-6-0-6--|
     .  .      .   . . . . . . . . . . . .   .   .

|-----------------------------------|
|-----------------------------------|
|-----------------------------------|
|--1---0---4p3---1------------------| 
|--1-0-0-0-4p3-0-1-0-0-0-0-0-0-0-0--|
|----0-0-0-4p3-0-1-0-0-0-0-0-0-0-0--|
     .   .     .   . . . . . . . . 

2:28-2:54
|---------------------------------------------------|
|---------------------------------------------------|
|---------------------------------------------------|
|--1---0---4p3---------------------------------0h1--|x3 
|--1-0-0-0-4p3-0-0-0-0---0-0-0-0---0-0-0-0-0-0-0h1--|
|----0-0-0-4p3-0-0-0-0---0-0-0-0---0-0-0-0-0-0------|
     .   .     . . . .   . . . .   . . . . . .

|------------------------------------------------------|
|------------------------------------------------------|
|------------------------------------------------------|
|--1---0---4p3-----------------------------------------| 
|--1-0-0-0-4p3-0-0-0-0---0-0-0-0---0-0-0-0-0-0--6-6----|
|----0-0-0-4p3-0-0-0-0---0-0-0-0---0-0-0-0-0-0-5----12/|
     .   .     . . . .   . . . .   . . . . . . 

and there u have it if u wanna make any corrections go for it :)
Tap to rate this tab
# A B C D E F G H I J K L M N O P Q R S T U V W X Y Z