Song name
# A B C D E F G H I J K L M N O P Q R S T U V W X Y Z

The Devil Wears Prada - Dead Throne tab

----------------------------------------------------------------------------
                    The Devil Wears Prada - Dead Throne
----------------------------------------------------------------------------

Band: The Devil Wears Prada
Song: Dead Throne
Album: Dead Throne
Track: 1
Length: 2:45

Tuning: Drop B (B F# B E G# C#)



GUITAR 1

[0:00-0:19]

C#|--10-10-10-10-10-10-10-10-6-6-6-6-6-6-5-5-5-5------------------------------|
G#|--x--x--x--x--x--x--x--x--x-x-x-x-x-x-x-x-x-x-7-7-7-7-7-7-7-7-7-7-8-8-8-8--|
E |--7--7--7--7--7--7--7--7--3-3-3-3-3-3-2-2-2-2-x-x-x-x-x-x-x-x-x-x-x-x-x-x--|  x6
B |----------------------------------------------4-4-4-4-4-4-4-4-4-4-5-5-5-5--|
F#|---------------------------------------------------------------------------|
B |---------------------------------------------------------------------------|

[0:26-0:39]

C#|--10-10-10-10-10-10-10-10-6-6-6-6-6-6-5-5-5-5------------------------------|
G#|--x--x--x--x--x--x--x--x--x-x-x-x-x-x-x-x-x-x-7-7-7-7-7-7-7-7-7-7-8-8-8-8--|
E |--7--7--7--7--7--7--7--7--3-3-3-3-3-3-2-2-2-2-x-x-x-x-x-x-x-x-x-x-x-x-x-x--|  x4
B |----------------------------------------------4-4-4-4-4-4-4-4-4-4-5-5-5-5--|
F#|---------------------------------------------------------------------------|
B |---------------------------------------------------------------------------|

[0:39-0:41]

C#|------10~------|
G#|------x--------|
E |------7~-------|
B |---------------|
F#|---------------|
B |---------------|

[0:42-0:54]

C#|-----------------------------------------|-----------------------------------------|
G#|-----------------------------------------|-----------------------------------------|
E |-----------------------------------------|-----------------------------------------|
B |-----------------------------------------|-----------------------------------------|
F#|--5b------5b--00-5-3-2--5b--0-5-3-2-3-5--|--5b------5b--00-5-3-2--5b--0-5-3-2------|
B |------00------00-5-3-2------0-5-3-2-3-5--|------00------00-5-3-2------0-5-3-2-3-5--|
         ..      .. . . .      . . . . . .         ..      .. . . .      . . . .

C#|-----------------------------------------|----------------------------------------------|
G#|-----------------------------------------|-----------------------------------7-7-7-7-7--|
E |-----------------------------------------|-----------------------------------x-x-x-x-x--|
B |--3b------3b------------3b---------------|--3b------3b------------3b---------4-4-4-4-4--|
F#|--------------00-5-3-2------0-5-3-2-3-5--|--------------00-5-3-2------0-5-3-------------|
B |------00------00-5-3-2------0-5-3-2-3-5--|------00------00-5-3-2------0-5-3-------------|
         ..      .. . . .      . . . . . .         ..      .. . . .      . . .

[0:54-1:00]

C#|----------------------------------------------------------------------------------|
G#|--7-7-7-7-7---7-7-7-7-7---7-7--7-7---7-7--7-7---7-7-7-7-7---7-7-7-7-7---7-7--7-7--|
E |--x-x-x-x-x---x-x-x-x-x---x-x--x-x---x-x--x-x---x-x-x-x-x---x-x-x-x-x---x-x--x-x--|
B |--4-4-4-4-4---4-4-4-4-4---4-4--4-4---4-4--4-4---4-4-4-4-4---4-4-4-4-4---4-4--4-4--|
F#|----------------------------------------------------------------------------------|
B |----------------------------------------------------------------------------------|

[1:01-1:13]

C#|------------------------------------------------------------------------|
G#|--7--7--7--7--7--7--7--7--7--7--7--7--7--7--7--7--7--7------------------|
E |--x--x--x--x--x--x--x--x--x--x--x--x--x--x--x--x--x--x------------------|
B |--4--4--4--4--4--4--4--4--4--4--4--4--4--4--4--4--4--4------------------|
F#|-----------------------------------------------------------8-5-0-5-3-0--|
B |-----------------------------------------------------------8-5-0-5-3-0--|

C#|------------------------------------------------------------------------|
G#|--7--7--7--7--7--7--7777777777777777--7--7--7--7--7--7------------------|
E |--x--x--x--x--x--x--xxxxxxxxxxxxxxxx--x--x--x--x--x--x------------------|
B |--4--4--4--4--4--4--4444444444444444--4--4--4--4--4--4------------------|
F#|-----------------------------------------------------------8-5-0-5-3-0--|
B |-----------------------------------------------------------8-5-0-5-3-0--|

[1:14-1:26]

C#|--10-------------------------------------------------------------------|
G#|--x--------------------------------------------------5-5-5--------5-5--|
E |--7----------------12---------------14---------------9-9-9-9h10p9-9-9--|
B |-------------------x----------------x----------------------------------|
F#|------0--0-0--0-0--10--0--0-0--0-0--12--0--0-0--0-0--------------------|
B |------0--0-0--0-0------0--0-0--0-0------0--0-0--0-0--------------------|
         .  . .  . .      .  . .  . .      .  . .  . .

C#|----------------------------------------------------------------|
G#|------------------------------------------------------5-5-5-5\--|
E |--15----------------12---------------14---------------9-9-9-9\--|
B |--x-----------------x----------------x--------------------------|
F#|--13---0--0-0--0-0--10--0--0-0--0-0--12--0--0-0--0-0------------|
B |-------0--0-0--0-0------0--0-0--0-0------0--0-0--0-0------------|
          .  . .  . .      .  . .  . .      .  . .  . .

[1:26-1:39]

C#|----------------------------------------------------|
G#|--7-7-7-7-7-7-7-7-7-7-7-7-7-7-7-7-7-7---------------|
E |--x-x-x-x-x-x-x-x-x-x-x-x-x-x-x-x-x-x---------------|
B |--4-4-4-4-4-4-4-4-4-4-4-4-4-4-4-4-4-4---------------|
F#|---------------------------------------8-5-0-5-3-0--|
B |---------------------------------------8-5-0-5-3-0--|

C#|--------------------------------------------------------------------------|
G#|--------------------------------------------------------------------------|
E |--------------------------------------------------------------------------|
B |--------------------------------------------------------------------------|
F#|--00~-00~-0000~-00~-0000~-00~-0000~-00~-0000~-00~-0000~-00~--8-5-0-5-3-0--|
B |--00~-00~-0000~-00~-0000~-00~-0000~-00~-0000~-00~-0000~-00~--8-5-0-5-3-0--|
     ..  ..  ....  ..  ....  ..  ....  ..  ....  ..  ....  ..

[1:39-2:05]

C#|--------------------------------------------------------------|
G#|--------------------------------------------------------------|
E |--7--7--7--7--15--15--15--14--14--11--11--11--11--11--11--11--|  x8
B |--x--x--x--x--x---x---x---x---x---x---x---x---x---x---x---x---|
F |--5--5--5--5--13--13--13--12--12--9---9---9---9---9---9---9---|
B |--------------------------------------------------------------|

[2:05-2:08]

C#|----------------------------|
G#|----------------------------|
E |----------------------------|
B |--/5--5~--5/8--8--8~--8/12--|
F#|----------------------------|
B |----------------------------|

[2:08-2:21]

C#|--10-10-10-10-10-10-10-10-6-6-6-6-6-6-5-5-5-5------------------------------|
G#|--x--x--x--x--x--x--x--x--x-x-x-x-x-x-x-x-x-x-7-7-7-7-7-7-7-7-7-7-8-8-8-8--|
E |--7--7--7--7--7--7--7--7--3-3-3-3-3-3-2-2-2-2-x-x-x-x-x-x-x-x-x-x-x-x-x-x--|  x4
B |----------------------------------------------4-4-4-4-4-4-4-4-4-4-5-5-5-5--|
F#|---------------------------------------------------------------------------|
B |---------------------------------------------------------------------------|

[2:21-2:45]

C#|------10~------|
G#|------x--------|
E |------7~-------|
B |---------------|
F#|---------------|
B |---------------|




GUITAR 2

[0:26-0:40]

C#|-------------------------------------------------------------------|
G#|-------------------------------------------------------------------|
E |-------------------------------------------------------------------|
B |-------------------------------------------------------------------|
F#|--0-000000000000000000--0-0000--0-0-000000000000000000--0-0000--0--|
B |--0-000000000000000000--0-0000--0-0-000000000000000000--0-0000--0--|
       ..................  . ....  .   ..................  . ....  .

C#|-----------------------------|
G#|-----------------------------|
E |-----------------------------|
B |----------0~-----------------|
F#|--0---0---0~---0-5-0-3-0-----|
B |--0---0---0~---0-5-0-3-0-8\--|
                  . . . . .

C#|--------------------------------------------------------|
G#|--------------------------------------------------------|
E |--------------------------------------------------------|
B |--------------------------------------------------------|
F#|-----------------------------------8-88-8p7--0-5-3-2-0--|
B |--00000000000000000000--0-0000--0--8-88-8p7--0-5-3-2-0--|
                                        ..      . . . .
[0:41]

C#|---------------|
G#|---------------|
E |---------------|
B |---------------|
F#|---------------|
B |------12\------|

[0:42-0:54]

C#|-----------------------------------------|-----------------------------------------|
G#|-----------------------------------------|-----------------------------------------|
E |-----------------------------------------|-----------------------------------------|
B |-----------------------------------------|-----------------------------------------|
F#|--5b------5b--00-5-3-2--5b--0-5-3-2-3-5--|--5b------5b--00-5-3-2--5b--0-5-3-2------|
B |------00------00-5-3-2------0-5-3-2-3-5--|------00------00-5-3-2------0-5-3-2-3-5--|
         ..      .. . . .      . . . . . .         ..      .. . . .      . . . .

C#|-----------------------------------------|----------------------------------------------|
G#|-----------------------------------------|----------------------------------------------|
E |-----------------------------------------|----------------------------------------------|
B |-----------------------------------------|----------------------------------------------|
F#|--5b------5b--00-5-3-2--5b--0-5-3-2-3-5--|--5b------5b--00-5-3-2--5b--0-5-3-------------|
B |------00------00-5-3-2------0-5-3-2-3-5--|------00------00-5-3-2------0-5-3--0-0-0-0-0--|
         ..      .. . . .      . . . . . .         ..      .. . . .      . . .

[0:54-1:00]

C#|----------------------------------------------------------------------------------|
G#|----------------------------------------------------------------------------------|
E |----------------------------------------------------------------------------------|
B |----------------------------------------------------------------------------------|
F#|----------------------------------------------------------------------------------|
B |--0-0-0-0-0---0-0-0-0-0---0-0--0-0---0-0--0-0---0-0-0-0-0---0-0-0-0-0---0-0--0-0--|

[1:01-1:13]

C#|------------------------------------------------------------------------|
G#|------------------------------------------------------------------------|
E |------------------------------------------------------------------------|
B |------------------------------------------------------------------------|
F#|--00-00-00-00-00-00-------------------00-00-00-00-00-00----8-5-0-5-3-0--|
B |--00-00-00-00-00-00-------------------00-00-00-00-00-00----8-5-0-5-3-0--|
     .. .. .. .. .. ..                   .. .. .. .. .. ..

C#|-------------------------------------------------------------------------|
G#|-------------------------------------------------------------------------|
E |-------------------------------------------------------------------------|
B |-------------------------------------------------------------------------|
F#|--00-00-00-00-00-00--------------------00-00-00-00-00-00----8-5-0-5-3-0--|
B |--00-00-00-00-00-00--xxxxxxxxxxxxxxxx--00-00-00-00-00-00----8-5-0-5-3-0--|
     .. .. .. .. .. ..                    .. .. .. .. .. ..

[1:14-1:26]

C#|---------------------------------------------------|
G#|---------------------------------------------------|
E |--10---------------7---------------6---------------|
B |--x----------------x---------------x---------------|
F#|--8---0--0-0--0-0--5--0--0-0--0-0--4--0--0-0--0-0--|
B |------0--0-0--0-0-----0--0-0--0-0-----0--0-0--0-0--|
         .  . .  . .     .  . .  . .     .  . .  . .

C#|---------------------------------------------------|
G#|---------------------------------------------------|
E |--10---------------7---------------6---------------|
B |--x----------------x---------------x---------------|
F#|--8---0--0-0--0-0--5--0--0-0--0-0--4--0--0-0--0-0--|
B |------0--0-0--0-0-----0--0-0--0-0-----0--0-0--0-0--|
         .  . .  . .     .  . .  . .     .  . .  . .

[1:26-1:39]

C#|------------------------------------------------------------------------|
G#|------------------------------------------------------------------------|
E |------------------------------------------------------------------------|
B |------------------------------------------------------------------------|
F#|--00-00-00-00-00-00-00-00-00-00-00-00-00-00-00-00-00-00----8-5-0-5-3-0--|
B |--00-00-00-00-00-00-00-00-00-00-00-00-00-00-00-00-00-00----8-5-0-5-3-0--|
     .. .. .. .. .. .. .. .. .. .. .. .. .. .. .. .. .. ..

C#|--------------------------------------------------------------------------|
G#|--------------------------------------------------------------------------|
E |--------------------------------------------------------------------------|
B |--------------------------------------------------------------------------|
F#|--00~-00~-0000~-00~-0000~-00~-0000~-00~-0000~-00~-0000~-00~--8-5-0-5-3-0--|
B |--00~-00~-0000~-00~-0000~-00~-0000~-00~-0000~-00~-0000~-00~--8-5-0-5-3-0--|
     ..  ..  ....  ..  ....  ..  ....  ..  ....  ..  ....  ..

[1:39-2:05]

C#|-------------------------------------------------------------------|
G#|-------------------------------------------------------------------|
E |-------------------------------------------------------------------|
B |--0-------------------------0---0-0-------------------------0---0--|
F#|--0-0-0-0-0-0-0-0-0-0-0-0-0-0-0-0-0-0-0-0-0-0-0-0-0-0-0-0-0-0-0-0--|
B |--0-0-0-0-0-0-0-0-0-0-0-0-0-0-0-0-0-0-0-0-0-0-0-0-0-0-0-0-0-0-0-0--|
       . . . . . . . . . . . .   .     . . . . . . . . . . . .   .

C#|-------------------------------------------------------------------|
G#|-------------------------------------------------------------------|
E |-------------------------------------------------------------------|
B |--5-------------------------5---5\1-------------------------1---1--|
F#|--5-5-5-5-5-5-5-5-5-5-5-5-5-5-5-5\1-1-1-1-1-1-1-1-1-1-1-1-1-1-1-1--|
B |--5-5-5-5-5-5-5-5-5-5-5-5-5-5-5-5\1-1-1-1-1-1-1-1-1-1-1-1-1-1-1-1--|
       . . . . . . . . . . . .   .     . . . . . . . . . . . .   .

C#|-------------------------------------------------------------------|
G#|-------------------------------------------------------------------|
E |-------------------------------------------------------------------|
B |--0-------------------------0---0-0-------------------------0---0--|
F#|--0-0-0-0-0-0-0-0-0-0-0-0-0-0-0-0-0-0-0-0-0-0-0-0-0-0-0-0-0-0-0-0--|
B |--0-0-0-0-0-0-0-0-0-0-0-0-0-0-0-0-0-0-0-0-0-0-0-0-0-0-0-0-0-0-0-0--|
       . . . . . . . . . . . .   .     . . . . . . . . . . . .   .

C#|-------------------------------------------------------------------|
G#|-------------------------------------------------------------------|
E |-------------------------------------------------------------------|
B |--5-------------------------5---5\1-------------------------1---1--|
F#|--5-5-5-5-5-5-5-5-5-5-5-5-5-5-5-5\1-1-1-1-1-1-1-1-1-1-1-1-1-1-1-1--|
B |--5-5-5-5-5-5-5-5-5-5-5-5-5-5-5-5\1-1-1-1-1-1-1-1-1-1-1-1-1-1-1-1--|
       . . . . . . . . . . . .   .     . . . . . . . . . . . .   .

[2:08-2:21]

C#|-------------------------------------------------------------------|
G#|-------------------------------------------------------------------|
E |-------------------------------------------------------------------|  x2
B |-------------------------------------------------------------------|
F#|--0-000000000000000000--0-0000--0-0-000000000000000000--0-0000--0--|
B |--0-000000000000000000--0-0000--0-0-000000000000000000--0-0000--0--|
       ..................  . ....  .   ..................  . ....  .

[2:21-2:45]

C#|---------------|
G#|---------------|
E |---------------|
B |-------0~------|
F#|-------0~------|
B |-------0~------|




************************************

| .   palm mute
| /   slide up
| \   slide down
| h   hammer-on
| p   pull-off
| ~   vibrato
| x   Mute note
| b   Bend

************************************
Tap to rate this tab
# A B C D E F G H I J K L M N O P Q R S T U V W X Y Z