Song name
# A B C D E F G H I J K L M N O P Q R S T U V W X Y Z

The Devil Wears Prada - Born To Lose tab

Hi everyone this is my first tab so dont judge me if its wrong but im pretty sure this 
is right. The tuning is in Drop B..


   *INTRO* x1

C#|---------------------------------------------------------------------|
G#|---------------------------------------------------------------------|
E |-----------------------------------7b-------7b-----------------------|
B |-------------------------------------------------5-8-5-4-------------|
F#|--000---0---000---0---3---3/5--5--------5----------------------------|
B |--000--000--000--000----0--------0----0---0----0---------------------|

PM   ***  * *  ***  * *    *        *    *   *    *

C#|---------------------------------------------------------------------|
G#|---------------------------------------------------------------------|
E |-----------------------------------7b-------7b-----------------------|
B |-------------------------------------------------5-8-5-4-5-4---------|
F#|--000---0---000---0---3---3/5--5--------5--------------------6-5-----|
B |--000--000--000--000----0--------0----0---0----0---------------------|

PM   ***  * *  ***  * *    *        *    *   *    *

   *VERSE A* x2

C#|---------------------------------------------------------------------|
G#|---------------------------------------------------------------------|
E |---------------------------------------------------------------------|
B |---------5-----------------------5---------------8---8-8-------------|
F#|--000--9---9--0-0-000-000-000--9---9--0-0-000--9---9-9-9-------------|
B |--000---------0-0-000-000-000---------0-0-000------------------------|

PM   ***         * * *** *** ***         * * ***

  *VERSE B* x2

C#|---------------------------------------------------------------------|
G#|---------------------------------------------------------------------|
E |---------------------------------------------------------------------|
B |-12----------12----12---12---13-12----------8----8---3---6-5---------|
F#|-12-000--000-12-00-12-0-12-0-13-12-000--000-8-00-8-0-3-0-6-5---------|
B |-12-000--000-12-00-12-0-12-0-13-12-000--000-8-00-8-0-3-0-6-5---------|

PM     ***  ***    **    *    *       ***  ***   **   *   *

  *BREAKDOWN 1* x2

C#|---------------------------------------------------------------------|
G#|---------------------------------------------------------------------|
E |-------------------------------------------------7b------------------|
B |---------------------------------------------------------------------|
F#|---1-3---------1-3-----------------1-3-------5--------5--------------|
B |-3-----0-000-3-----0-0-0-000-000-3-----0-000---0----0----------------|

PM        * ***       * * * *** ***       * ***   *    *

  *CHORUS* x6

C#|----------------------------------------------8/11-------------------|
G#|-------------------------------------10/12-10------12-9--------------|
E |-10-9-7-7--10-9-7-7--5h7-7--10-9-7-7---------------------------------|
B |---------------------------------------------------------------------|
F#|---------------------------------------------------------------------|
B |---------------------------------------------------------------------|



  *BRIDGE* (Theres 2 guitars to this part, the notes in the brackets is one guitar, and 
the ones not in brackets are the other, it doesnt matter which one you play here.)

C#|---------------------------------------------------------------------|
G#|---------------------------------------------------------------------|
E |---------------------------------------7b-------7b-------------------|
B |-----------------------------------------------------5-8-5-4---------|
F#|-000--[-0-]--000--[-0-]---3---3/5--5--------5------------------------|
B |-000--[000]--000--[000]-0---0--------0----0---0----0-----------------|

PM  ***   * *   ***   * *  *   *        *    *   *    *

C#|---------------------------------------------------------------------|
G#|---------------------------------------------------------------------|
E |---------------------------------------7b-------7b-------------------|
B |-----------------------------------------------------5-8-5-4-5-4-----|
F#|-000--[-0-]--000--[-0-]---3---3/5--5--------5--------------------6-5-|
B |-000--[000]--000--[000]-0---0--------0----0---0----0-----------------|

PM  ***   * *   ***   * *  *   *        *    *   *    *

  "If I were you I'd give it up, (I'd give it up, I'd give it up) If I were you I'd 
care, I would care."

*VERSE B* x2

C#|---------------------------------------------------------------------|
G#|---------------------------------------------------------------------|
E |---------------------------------------------------------------------|
B |-12----------12----12---12---13-12----------8----8---3---6-5---------|
F#|-12-000--000-12-00-12-0-12-0-13-12-000--000-8-00-8-0-3-0-6-5---------|
B |-12-000--000-12-00-12-0-12-0-13-12-000--000-8-00-8-0-3-0-6-5---------|

PM     ***  ***    **    *    *       ***  ***   **   *   *

  *BREAKDOWN 1* x2

C#|---------------------------------------------------------------------|
G#|---------------------------------------------------------------------|
E |-------------------------------------------------7b------------------|
B |---------------------------------------------------------------------|
F#|---1-3---------1-3-----------------1-3-------5--------5--------------|
B |-3-----0-000-3-----0-0-0-000-000-3-----0-000---0----0----------------|

PM        * ***       * * * *** ***       * ***   *    *

  *CHORUS* x6

C#|----------------------------------------------8/11-------------------|
G#|-------------------------------------10/12-10------12-9--------------|
E |-10-9-7-7--10-9-7-7--5h7-7--10-9-7-7---------------------------------|
B |---------------------------------------------------------------------|
F#|---------------------------------------------------------------------|
B |---------------------------------------------------------------------|

  Then thats basically it the outro is just open palm mutes so thanks for using my tab :D
Tap to rate this tab
# A B C D E F G H I J K L M N O P Q R S T U V W X Y Z