Song name
# A B C D E F G H I J K L M N O P Q R S T U V W X Y Z

The Devil Wears Prada - Kansas tab

Tuning: B, F#, B, E, G#, C#


Intro

C#|--------------------------------------|
G#|-10h11p10-----------------------------|
E |----------10-9-7--7-10-7-10-9-7-5-5-7-|
B |--------------------------------------|
F#|--------------------------------------|
B |--------------------------------------|

C#|------------------------------------|    [X4]
G#|-8----8h10--------------------------|
E |---10-------7-7-10-7-10-9-7-5-5-7---|
B |------------------------------------|
F#|------------------------------------|
B |------------------------------------|

This is the final of the intro.

C#|------------------------------------|
G#|-10h11p10---------------------------|
E |----------10-9-7--------------------|
B |------------------------------------|
F#|------------------------------------|
B |------------------------------------|

Letís go enter to the pre-tremolo

C#|----|
G#|-10-|
E |-12-|
B |----|
F#|----|
B |----|

C#|------------------------------------------|
G#|---15-15-15-15-15-15-15-15-15-15-15-15-15-|
E |------------------------------------------|
B |------------------------------------------|
F#|------------------------------------------|
B |------------------------------------------|

C#|------------------------------------|
G#|---13-13-13-13-13-13-13-13-13-13-13-|
E |------------------------------------|
B |------------------------------------|
F#|------------------------------------|
B |------------------------------------|

                                                                                         
                          [X2]

C#|-------------------------------------------|
G#|-10-10-10-10-10-10-10-10-10-10-10-10-10-10-|
E |-------------------------------------------|
B |-------------------------------------------|
F#|-------------------------------------------|
B |-------------------------------------------|

C#|----------------------------------|
G#|-5-5-5-5-5-5-5-5-5/-8-8-8-8-8-8-8-|
E |----------------------------------|
B |----------------------------------|
F#|----------------------------------|
B |----------------------------------|

Tremolo Part-
C#|-------------------------------------------|
G#|-15---18---17---13---15---10---------------|
E |-------------------------------------------|
B |-------------------------------------------|
F#|-------------------------------------------|
B |-------------------------------------------|

C#|--------------------------17---------------|
G#|-15---18---17---13---15--------------------|
E |-------------------------------------------|
B |-------------------------------------------|
F#|-------------------------------------------|
B |-------------------------------------------|

C#|-------------------------------------------|
G#|-15---18---17---13---15---10---------------|
E |-------------------------------------------|
B |-------------------------------------------|
F#|-------------------------------------------|
B |-------------------------------------------|

C#|---------------------17--------------------|
G#|-15---18---17---13-------------------------|
E |-------------------------------------------|
B |-------------------------------------------|
F#|-------------------------------------------|
B |-------------------------------------------|




Breakdown

C#|---|---|-------------------------|
G#|---|---|-------------------------|
E |---|---|-------------------------|
B |-0-|-0-|-00--000000--00--000000--|
F#|-0-|-0-|-00--000000--00--000000--|
B |-0-|-0-|-00--000000--00ó-000000--|
                  .       . .      . . . . . .     . .      . . . . . .
Pre-Final
C#|------------------------------------------|
G#|---15-15-15-15-15-15-15-15-15-15-15-15-15-|
E |------------------------------------------|
B |------------------------------------------|
F#|------------------------------------------|
B |------------------------------------------|

C#|------------------------------------|
G#|---13-13-13-13-13-13-13-13-13-13-13-|
E |------------------------------------|
B |------------------------------------|
F#|------------------------------------|
B |------------------------------------|
                                                                                         
                                    [X2]
C#|-------------------------------------------|
G#|-10-10-10-10-10-10-10-10-10-10-10-10-10-10-|
E |-------------------------------------------|
B |-------------------------------------------|
F#|-------------------------------------------|
B |-------------------------------------------|

C#|----------------------------------|
G#|-5-5-5-5-5-5-5-5-5/-8-8-8-8-8-8-8-|
E |----------------------------------|
B |----------------------------------|
F#|----------------------------------|
B |----------------------------------|

And the end
C#|---------------------|
G#|---------------------|
E |-7-10-7-10-9-7-5-5-7-|
B |---------------------|
F#|---------------------|
B |---------------------|
                                               [X1]
C#|------------------------------------|
G#|-8----8h10--------------------------|
E |---10-------7-7-10-7-10-9-7-5-5-7---|
B |------------------------------------|
F#|------------------------------------|
B |------------------------------------|







C#|--------------------------------------|
G#|-10h11p10-----------------------------|
E |----------10-9-7--7-10-7-10-9-7-5-5-7-|
B |--------------------------------------|
F#|--------------------------------------|
B |--------------------------------------|

C#|------------------------------------|    [X3]
G#|-8----8h10--------------------------|
E |---10-------7-7-10-7-10-9-7-5-5-7---|
B |------------------------------------|
F#|------------------------------------|
B |------------------------------------|

C#|-----------------|
G#|-10h11p10--------|
E |----------10-9-7-|
B |-----------------|
F#|-----------------|
B |-----------------|

C#|---------|
G#|---------|
E |-10-9----|  [X2]
B |------10-|
F#|---------|
B |---------|

C#|---|----------|
G#|---|----------|
E |---|--10-9----|
B |-8-|-------10-|
F#|-8-|----------|
B |-8-|----------|

C#|----|-----------|
G#|----|--13-------|
E |----|-----13-12-|
B |-11-|-----------|
F#|-11-|-----------|
B |-11-|-----------|


I Hope You Liked.
Enjoy.
Tap to rate this tab
# A B C D E F G H I J K L M N O P Q R S T U V W X Y Z