Song name
# A B C D E F G H I J K L M N O P Q R S T U V W X Y Z

The Devil Wears Prada - Untidaled tab

------------------------------------------------------------------------------
                      The Devil Wears Prada - Untidaled
-------------------------------------------------------------------------------

Band:The Devil Wears Prada
Song: Untidaled
Album: Dead Throne
Track: 2
Length: 2:55

Tuning: Drop B (B F# B E G# C#)


I take pride in this tab 100% by ear, iv nearly learned every song  by tdwp
generally speaking i have a good feeling of their playing style.

I have a cover video showing exactly how to play this

http://www.youtube.com/watch?v=vFsIh40v4hA




[0:00-0:11]

C#|-------------------------------------------------------------------|
G#|-------------------------------------------------------------------|
E |--3-------------------3\5------------------------------------------|
B |--3-------------------3\5------------------------------------------|
F#|--1----0----4p3---0---1\3-0-0-0-0-5---5---5---5---5---5---5---5----|
B |-----0-0--0-4p3-0-0-0-----0-0-0-0-6-0-6-0-6-0-6-0-6-0-6-0-6-0-6----|

C#|-------------------------------------------------------------------|
G#|-------------------------------------------------------------------|
E |--3-------------------3\5------------------------------------------|
B |--3-------------------3\5------------------------------------------|
F#|--1----0----5p4---0---1\3-0-0-0-0-5---5---5---5---5---5---5---5-0--|
B |-----0-0--0-5p4-0-0-0-----0-0-0-0-6-0-6-0-6-0-6-0-6-0-6-0-6-0-6-0--|


[0:12-0:22]
                       (whammy effect i substitute with a high pinch harmonic)
C#|----------------------------------------------------------------------5*--|
G#|----------------------------------------------------------------------5*--|
E |----------------------------------------------------------------------5*--|
B |--------------------------------------6---6-------------------------------|
F#|----5---5---5--------5---5---5--------5---5---5---------------------------|
B |--0-6-0-6-0-6-0000-0-6-0-6-0-6-0000-0-6-0-6-0-6-0000-1-1-1-4-1-0-0--------|

C#|-------------------------------------------------|
G#|-------------------------------------------------|
E |-------------------------------------------------|
B |-------------------------------------1-1-1-4-4-4-|
F#|---------------0--0--0---------------1-1-1-4-4-4-|
B |-0-0-0-0-0-----0--0--0-----0-0-0-0---1-1-1-4-4-4-|


[0:22-0:32]

C#|---------------------------------|-------------------------------------|
G#|---------------------------------|-------------------------------------|
E |--12--7--7-7---8--8-8-8-8-8-8-8--|--12--7--7-7---8--8-8-8-11-11-11-11--|  x2
B |--x---x--x-x---x--x-x-x-x-x-x-x--|--x---x--x-x---x--x-x-x-x--x--x--x---|
F#|--10--5--5-5---6--6-6-6-6-6-6-6--|--10--5--5-5---6--6-6-6-9--9--9--9---|
B |---------------------------------|-------------------------------------|

[0:32-0:43]
                          (chris usually uses light delay on these riffs)

C#|--17-13--------------------------------|--12h13p13------------------------|
G#|--------15----15-----------------------|-----------13----13------13/15-15-|
E |-----------14----14--------------------|--------------14----14~~----------|
B |--------------------15-15/17-----------|----------------------------------|
F#|-------------------------------17-17---|----------------------------------|
B |---------------------------------------|----------------------------------|

C#|--17-13--------------------------------|--12h13p13------------------------|
G#|--------15----15-----------------------|-----------13----13------13/15-15-|
E |-----------14----14--------------------|--------------14----14~~----------|
B |--------------------15-15/17-----------|----------------------------------|
F#|-------------------------------17-17---|----------------------------------|
B |---------------------------------------|----------------------------------|

[0:43-0:48]

C#|-----------------------------------------------------|
G#|-----------------------------------------------------|
E |--14-14-14-14-14-14-14\12---12-12-12-12-12-12-12-12--|
B |--x--x--x--x--x--x--x--x----x--x--x--x--x--x--x--x---|
F#|--12-12-12-12-12-12-12\10---10-10-10-10-10-10-10-10--|
B |-----------------------------------------------------|

C#|---------------------------------------------------|
G#|---------------------------------------------------|
E |--10-10-10-10-10-10-10-10-10-10-10-10-12-12-12-12--|
B |--x--x--x--x--x--x--x--x--x--x--x--x--x--x--x--x---|
F#|--8--8--8--8--8--8--8--8--8--8--8--8--10-10-10-10--|
B |---------------------------------------------------|

[0:48-0:53]


C#|--17-13--------------------------------|--12h13p13------------------------|
G#|--------15----15-----------------------|-----------13----13------13/15-15-|
E |-----------14----14--------------------|--------------14----14~~----------|
B |--------------------15-15/17-----------|----------------------------------|
F#|-------------------------------17-17---|----------------------------------|
B |---------------------------------------|----------------------------------|
[0:53-1:16]

C#|--------------|--------------------------------------------------------------------|
G#|--------------|--------------------------------------------------------------------|
E |--7-----------|--------------------------------------------------------------------|
B |--x-----------|--------------------------------------------------------------------|
F#|--5-----------|--------------------------------------------------------------------|
B |-----000-000--|--000-000-000-000----000-1-1-1-1-4-1-000-000-000-000--4-4-1-1-1-1---|


C#|------------------------------------------------------------------|
G#|------------------------------------------------------------------|
E |------------------------------------------------------------------|
B |------------------------------------------------------------------|
F#|------------------------------------------------------------------|
B |--000-000-000-000----000-1-1-1-1-4-1-000-000-000-000-4-4-1-1-1-1--|


C#|---------------------------------------------------------------------|
G#|---------------------------------------------------------------------|
E |--3------------------------------------------------------------------|
B |--3------------------------------------------------------------------|
F#|--1-000~-000~-000~---5---5---5---5-0-0-0-0-0-0-0-0--1-1-1-1-4-4-4-4--|
B |----000~-000~-000~-0-6-0-6-0-6-0-6-0-0-0-0-0-0-0-0--1-1-1-1-4-4-4-4--|


C#|---------------------------------------------------------------------|
G#|---------------------------------------------------------------------|
E |--3------------------------------------------------------------------|
B |--3------------------------------------------------------------------|
F#|--1-000~-000~-000~---5---5---5---5-0-0-0-0-0-0-0-0--1-1-1-1-4-4-4-4--|
B |----000~-000~-000~-0-6-0-6-0-6-0-6-0-0-0-0-0-0-0-0--1-1-1-1-4-4-4-4--|

[1:16-1:32]

C#|-----------------------------------------------------------------|
G#|-----------------------------------------------------------------|
E |--3-------------------3\5----------------------------------------|
B |--3-------------------3\5----------------------------------------|
F#|--1----0----4p3---0---1\3-0-0-0-0-5---5---5---5---5---5---5---5--|
B |-----0-0--0-4p3-0-0-0-----0-0-0-0-6-0-6-0-6-0-6-0-6-0-6-0-6-0-6--|


C#|-------------------------------------------------------------------|
G#|-------------------------------------------------------------------|
E |--3-------------------3\5------------------------------------------|
B |--3-------------------3\5------------------------------------------|
F#|--1----0----5p4---0---1\3-0-0-0-0-5---5---5---5---5---5---5---5-0--|
B |-----0-0--0-5p4-0-0-0-----0-0-0-0-6-0-6-0-6-0-6-0-6-0-6-0-6-0-6-0--|


[1:32-1:53]

C#|------------------------------------------|
G#|----4-4-----------4--4--------------------|
E |----7-7-----------7--7--------------------|
B |------------------------------------------|
F#|------------------------------------------|
B |------------------------------------------|




C#|----------------------------------------------------------------------------|
G#|----------------------------------------------------------------------------|
E |----------------------------------------------------------------------------|
B |----------------------------------------------------------------------------|
F#|----------10-10---------10-10-8-8-8-8---------10-10---------10-10-12-12-12--|
B |--0-0-0-0-------0-0-0-0---------------0-0-0-0-------0-0-0-0-----------------|

C#|-------------------------------------|-----------------------------------|
G#|-------------------------------------|-----------------------------------|
E |-------------------------------------|-----------------------------------|
B |------------12------12---------------|------------8-7--------------------|
F#|-------------------------------------|----------------------------8-7-5--|
B |--8-8-8-8-8----8-8-8---8-8-8-8-8-8-8-|--5-5-5-5-5-----5-5-5-5-5-5--------|

C#|----------------------------------------------------------------------------|
G#|----------------------------------------------------------------------------|
E |----------------------------------------------------------------------------|
B |----------------------------------------------------------------------------|
F#|----------10-10---------10-10-8-8-8-8---------10-10---------10-10-12-12-12--|
B |--0-0-0-0-------0-0-0-0---------------0-0-0-0-------0-0-0-0-----------------|

C#|-------------------------------------|-----------------------------------|
G#|-------------------------------------|-----------------------------------|
E |-------------------------------------|-----------------------------------|
B |------------12------12---------------|------------8-7--------------------|
F#|-------------------------------------|---------------------------8-7-5---|
B |--8-8-8-8-8----8-8-8-----8-8-8-8-8-8-|--5-5-5-5-5-----5-5-5-5-5-5--------|

[1:53-1:58]

C#|---------------------------------------------|
G#|---------------------------------------------|
E |---------------------------------------------|
B |--0-------------------0----------------------|
F#|--0-0-0-0-0-0-0-0-0-0-0-0-0-0-0-0-0-0-0-0-0--|
B |--0-0-0-0-0-0-0-0-0-0-0-0-0-0-0-0-0-0-0-0-0--|


[1:59-2:19]

C#|--17-13--------------------------------|--12h13p13------------------------|
G#|--------15----15-----------------------|-----------13----13------13/15-15-|
E |-----------14----14--------------------|--------------14----14~~----------|
B |--------------------15-15/17-----------|----------------------------------|
F#|-------------------------------17-17---|----------------------------------|
B |---------------------------------------|----------------------------------|x4

[2:19-2:29]

C#|-----------------------------------------------------|
G#|-----------------------------------------------------|
E |--3--------------------------------------------------|
B |--3--------------------------------------------------|
F#|--1----0----4p3---0-0-0-0-0-0-0-0-0---5---5---5---5--|
B |-----0-0--0-4p3-0-0-0-0-0-0-0-0-0-0-0-6-0-6-0-6-0-6--|

C#|-------------------------------------------|
G#|-------------------------------------------|
E |--3----------------------------------------|
B |--3----------------------------------------|
F#|--1----0----5p4---0-0-0-0-0-0-0-0-0---5----|
B |-----0-0--0-5p4-0-0-0-0-0-0-0-0-0-0-0-6----|


[2:30-2:55]

C#|-----------------------------------------------------|
G#|-----------------------------------------------------|
E |--3--------------------------------------------------|
B |--3-------------0-0-0-0---0-0-0-0---0-0-0-0----------|
F#|--1----0----4p3-0-0-0-0---0-0-0-0---0-0-0-0-0-0-1-4--|
B |-----0-0--0-4p3-0-0-0-0---0-0-0-0---0-0-0-0-0-0-1-4--|


C#|-----------------------------------------------------|
G#|-----------------------------------------------------|
E |--3--------------------------------------------------|
B |--3-------------0-0-0-0---0-0-0-0---0-0-0-0----------|
F#|--1----0----4p3-0-0-0-0---0-0-0-0---0-0-0-0-0-0-1-4--|
B |-----0-0--0-4p3-0-0-0-0---0-0-0-0---0-0-0-0-0-0-1-4--|


C#|-----------------------------------------------------|
G#|-----------------------------------------------------|
E |--3--------------------------------------------------|
B |--3-------------0-0-0-0---0-0-0-0---0-0-0-0----------|
F#|--1----0----4p3-0-0-0-0---0-0-0-0---0-0-0-0-0-0-1-4--|
B |-----0-0--0-4p3-0-0-0-0---0-0-0-0---0-0-0-0-0-0-1-4--|


C#|----------------------------------------------------------|
G#|----------------------------------------------------------|
E |--3-------------------------------------------------7\\---|
B |--3-------------0-0-0-0---0-0-0-0---0-0-0-0---------x-----|
F#|--1----0----4p3-0-0-0-0---0-0-0-0---0-0-0-0-0-0-1-4-5\\---|
B |-----0-0--0-4p3-0-0-0-0---0-0-0-0---0-0-0-0-0-0-1-4-------|








************************************

| .   palm mute
| /   slide up
| \   slide down
| h   hammer-on
| p   pull-off
| ~   vibrato
| *   harmonic
| x   Mute note
| b   Bend

************************************
Tap to rate this tab
# A B C D E F G H I J K L M N O P Q R S T U V W X Y Z