Song name
# A B C D E F G H I J K L M N O P Q R S T U V W X Y Z

The Devil Wears Prada - Holdfast tab

The Devil Wears Prada - Holdfast
Intro tabbed by electrarookie

Lead Guitar
C#----------------20--20-17-20-17-18-17-18-17-|
G#-15--15-18-15-18--18------------------------|
E---------------------------------------------|
B---------------------------------------------|
F#--------------------------------------------|
B---------------------------------------------|

Rhythm Guitar
C#----------------------------------------------|
G#----------------------------------------------|
E-----------------------------------------------|
B-----------------------------------------------|
F#-0----------------------------------------3-0-|
B--0----------------------------------------3-0-|





Lead Guitar
C#------------------20--20-17-20-17-22-17-22-17-|
G#-15-18-15-18-15-18--18------------------------|
E-----------------------------------------------|
B-----------------------------------------------|
F#----------------------------------------------|
B-----------------------------------------------|




Lead Guitar
C#------------------20--20-17-20-17-18-17-18-17-|
G#-15-18-15-18-15-18--18------------------------|
E-----------------------------------------------|
B-----------------------------------------------|
F#----------------------------------------------|
B-----------------------------------------------|

Rhythm Guitar
C#----------------------------------------------|
G#----------------------------------------------|
E-----------------------------------------------|
B-----------------------------------------------|
F#-0----------------------------------------3-0-|
B--0----------------------------------------3-0-|





Lead Guitar
C#------------------20--20-17-20-17-22-17-22-17-|
G#-15-18-15-18-15-18--18------------------------|
E-----------------------------------------------|
B-----------------------------------------------|
F#----------------------------------------------|
B-----------------------------------------------|

Rhythm Guitar
C#----------------------------------------------|
G#----------------------------------------------|
E-----------------------------------------------|
B-----------------------------------------------|
F#-5--------------------8-----------/pickslide--|
B--5--------------------8-----------/-----------|






Lead Guitar
C#------------------20--20-17-20-17-18-17-18-17-|
G#-15-18-15-18-15-18--18------------------------|
E-----------------------------------------------|
B-----------------------------------------------|
F#----------------------------------------------|
B-----------------------------------------------|

Rhythm Guitar
C#---------------------------------------------------------|
G#---------------------------------------------------------|
E-------------10-10-10------------10-10-10-----------------|
B----------------------------------------------------------|
F#-0-00--0-00-8--8--8--0-00--0-00-8--8--8-3333333333333333-|
B--0-00--0-00----------0-00--0-00---------3333333333333333-|
     ..    ..            ..    ..





Lead Guitar
C#------------------20--20-17-20-17-22-17-22-17-|
G#-15-18-15-18-15-18--18------------------------|
E-----------------------------------------------|
B-----------------------------------------------|
F#----------------------------------------------|
B-----------------------------------------------|

Rhythm Guitar
C#---------------------------------------------------------|
G#---------------------------------------------------------|
E-------------10-10-10------------10-10-10-----------------|
B----------------------------------------------------------|
F#-0-00--0-00-8--8--8--0-00--0-00-8--8--8-8888888877777777-|
B--0-00--0-00----------0-00--0-00---------8888888877777777-|
     ..    ..            ..    ..




Lead Guitar
C#----------|
G#----------|
E--10----12-|
B-----------|
F#-8-----10-|
B-----------|

Rhythm Guitar
C#---------|
G#---------|
E--7-----5-|
B----------|
F#-5-----3-|
B----------|

That's all please rate and comment. Thanks
Tap to rate this tab
 
# A B C D E F G H I J K L M N O P Q R S T U V W X Y Z