Song name
# A B C D E F G H I J K L M N O P Q R S T U V W X Y Z

The Devil Wears Prada - Kansas tab

Alright so the other tab is pretty decent, but there's still little parts where 
things dont sound right(mostly in the intro).

Drop B tuning

intro

C#|--------------------------------------------------|
G#|-10h11-10/6----------------------------8---8h10---|    
E |------------7--7/10\7-10p9p7/5-5--5/7---10--------|\
B |--------------------------------------------------| \
F#|--------------------------------------------------|  \
B |--------------------------------------------------|   \  
                                                         / 4X
                                                        /
C#|--------------------------------------------------| /
G#|--------------------------------------------------|/
E |-7--7/10\7-10p9p7/5-5--5\2------------------------|
B |--------------------------------------------------|
F#|--------------------------------------------------|
B |--------------------------------------------------|

   Then end on this.

C#|--------------------------------------------------| 
G#|--10h11-10/6--------------------------------------|
E |-------------7(let this note ring)----------------|
B |--------------------------------------------------|
F#|--------------------------------------------------|
B |--------------------------------------------------|

  While that guitar is doing that, the other is doing this in the
  background.

C#|------0~---------------0~-------0~-----0~----------|(not sure about 
G#|------6~-(x2)----------9~-------6~-----6~----------| last note)
E |------7~---------------8~-------7~-----7~----------|
B |---------------------------------------------------|
F#|---------------------------------------------------|
B |---------------------------------------------------|

C#|------0~---------------0~-------0~-----0~----------| 
G#|------6~-(x2)----------9~-------6~-----6~----------| 
E |------7~---------------8~-------7~-----7~----------|
B |---------------------------------------------------|
F#|---------------------------------------------------|
B |---------------------------------------------------|
Tap to rate this tab
 
# A B C D E F G H I J K L M N O P Q R S T U V W X Y Z