Song name
# A B C D E F G H I J K L M N O P Q R S T U V W X Y Z

The Devil Wears Prada - Kansas tab

-------------------------------------------------------------------------------
			     Kansas - The Devil Wears Prada
-------------------------------------------------------------------------------
Tabbed by: EyelessHorizon
Email:EyelessHorizon@yahoo.com
This is my first tab, I learned it by ear, and I hope you enjoy.
Tuning:Drop B
Intro Clean Delay  !Lead!                   Repeat 4 times
e|-5h6p5---|-----------------------------------------------------------------|
B|--------6|------------------------------------8-----8/10-------------------|
G|---------|----7/10-----10\9-----5-----5/7----------------------------------|
D|---------|-0--------0--------0-----0-------0-----0-------------------------|
A|---------|-----------------------------------------------------------------|
E|---------|-----------------------------------------------------------------|
                  The fourth time you play this end with !
e|-----------------------------------5h6p5--------|------!5------------------|
B|-----------------------------------------6------|------!6------------------|
G|---7/10-----10\9-----5-----5\2------------------|------------------7/13b---|
D|-0-------0--------0-----0-------0---------------|------!0------------------|
A|------------------------------------------------|--------------------------|
E|------------------------------------------------|--------------------------|
      !Distortion Delay!   I don't know exactly how many strums
e|-------------------------------------------22x24-15x24-17x24-20x16-13x24---|
B|-15x16--13x8--10x8-10b-10x8------------------------------------------------|
G|-----------------------------5x4--6x6--8x8---------------------------------|
D|---------------------------------------------------------------------------|
A|---------------------------------------------------------------------------|
E|---------------------------------------------------------------------------|
      !Distortion!      Palm Mute
e|---------------------------------------------------------------------------|
B|---------------------------------------------------------------------------|
G|---------------------------------------------------------------------------|              
D|-x-x-x-x-x-x---------------------------------------------------------------|
A|-x-x-x-x-x-x---0--0--0---0-0-0-0--0--0-0---0-0-0-0-0-0--0--0--0--0--0--0---|
E|-x-x-x-x-x-x---0--0--0---0-0-0-0--0--0-0---0-0-0-0-0-0--0--0--0--0--0--0---|

e|---------------------------------------------------------------------------|
B|---------------------------------------------------------------------------|
G|---------------------------------------------------------------------------|
D|---------------------------------------------------------------------------|
A|-0-0-0-0-0-0--0--0--0---0-0-0-0--0--0-0---0-0-0-0-0-0--0--0--0--0--0--0----|
E|-0-0-0-0-0-0--0--0--0---3-3-3-3--3--3-3---3-3-3-3-3-3--3--3--3--3--3--3----|
                                                    Palm Mute
e|---------------------------------|-----------------------------------------|
B|---------------------------------|-----------------------------------------|
G|---------------------------------|-----------------------------------------|
D|------------------------0--------|-------------------0---------------------|
A|-0-0-0-0-0-0--0--0--0---0--------|-------------------0---------------------|
E|-5-5-5-5-5-5--8--8--8---0--------|-------------------0---------------------|

e|---------------------------------------------------------------------------|
B|---------------------------------------------------------------------------|
G|---------------------------------------------------------------------------|
D|-----------------------------------------------------12\-------------------|
A|-0-0---0-0-0--0--0--0---0-0---0-0-0--0--0--0---------12\-------------------|
E|-0-0---0-0-0--0--0--0---0-0---0-0-0--0--0--0---------12\-------------------|
         Repeat Distortion Delay and then Intro




  Rythm   The rythm is pretty much the same except during !Distortion Delay!  Repeat 2 times
e|---------------------------------------------------------------------------|
B|---------------------------------------------------------------------------|
G|---------------------------------------------------------------------------|
D|-0-0-0-0-0-0-0-0-0-0-0-0-3-3-3-3-8-8-8-8-8-8-8-8-3-3-3-3-3-5-5-5-5---------|
A|-0-0-0-0-0-0-0-0-0-0-0-0-3-3-3-3-8-8-8-8-8-8-8-8-3-3-3-3-3-5-5-5-5---------|
E|-0-0-0-0-0-0-0-0-0-0-0-0-3-3-3-3-8-8-8-8-8-8-8-8-3-3-3-3-3-5-5-5-5---------|

e|------------------------------------------------------------------------|--|
B|------------------------------------------------------------------------|--|
G|------------------------------------------------------------------------|--|
D|-0-0-0-0-0-0-0-0-0-0-0-0-3-3-3-3-8-8-8-8-8-8-8-8-10-10-10-10-12-12-12-12|--|
A|-0-0-0-0-0-0-0-0-0-0-0-0-3-3-3-3-8-8-8-8-8-8-8-8-10-10-10-10-12-12-12-12|--|
E|-0-0-0-0-0-0-0-0-0-0-0-0-3-3-3-3-8-8-8-8-8-8-8-8-10-10-10-10-12-12-12-12|--|
      End with !
e|---------------------------------------------------------------------------|
B|---------------------------------------------------------------------------|
G|---------------------------------------------------------------------------|
D|-0!------------------------------------------------------------------------|
A|-0!------------------------------------------------------------------------|
E|-0!------------------------------------------------------------------------|
************************************

| /   slide up
| \   slide down
| h   hammer-on
| p   pull-off
| ~   vibrato
| +   harmonic
| x   Mute note
| b   Bend
| pb  Pre-bend
| br  Bend release
| pbr Pre-bend release
| brb Bend release bend

************************************
Tap to rate this tab
# A B C D E F G H I J K L M N O P Q R S T U V W X Y Z