Song name
# A B C D E F G H I J K L M N O P Q R S T U V W X Y Z

The Devil Wears Prada - Pretenders tab

----------------------------------------------------------------------------
                     Pretenders - The Devil Wears Prada
----------------------------------------------------------------------------
Tabbed by: EyelessHorizon
Email: EyelessHorizon@yahoo.com

Please Rate and comment
I suggest you pay close attention to the song cause my tab might be confusing. Sorry if it is.
Tuning: Drop A
   Intro !Distortion!
  Play 1X end with pickslide
e|---------------------------------------------------------------------------|
B|---------------------------------------------------------------------------|
G|--7----8-8-8-7-------------------------------------------------------------|
D|---------------------------------------------------------------------------|
A|--5----6-6-6-5----Pickslide------------------------------------------------|
E|------------------Pickslide------------------------------------------------|
   Play 2X Palm mute
e|---------------------------------------------------------------------------|
B|---------------------------------------------------------------------------|
G|-------------------------------------------8-8-8-8-------------------------|
D|---------------------------------------------------------------------------|
A|--0-0-0--0--0-0-0--0-0-0--0--0-0-0--0-0-0--6-6-6-6-------------------------|
E|--0-0-0--0--0-0-0--0-0-0--0--0-0-0--0-0-0----------------------------------|
  2nd time playing this don't play the 6 and 8
e|---------------------------------------------------------------------------|
B|---------------------------------------------------------------------------|
G|---------------------------------------8-8-8-8-----------------------------|
D|---------------------------------------------------------------------------|
A|--0-0-0--0--0-0-0--0-0-0--0--0-0-0--0--6-6-6-6-----------------------------|
E|--0-0-0--0--0-0-0--0-0-0--0--0-0-0--0--------------------------------------|
   Play 3X
e|---------------------------------------------------------------------------|
B|--10-10-10-10-10--18-18-18-------------------------------------------------|
G|---------------------------------------------------------------------------|
D|--7--7--7--7--7---15-15-15-------------------------------------------------|
A|---------------------------------------------------------------------------|
E|---------------------------------------------------------------------------|
   the 4th time play   Top and bottom play 2X end with !
e|---------------------------------------------------------------------------|
B|--10-10-10-10-10--18-18-17-17-17-15x8-14x8-11x8-10x8-----------------------|
G|---------------------------------------------------------------------------|
D|--7--7--7--7--7---15-15-14-14-14-12x8-11x8-8x8--7x8------------------------|
A|---------------------------------------------------------------------------|
E|------------------------------------------------------!0-------------------|
   Play 2X Palm mute
e|---------------------------------------------------------------------------|
B|---------------------------------------------------------------------------|
G|---------------------------------------------------------------------------|
D|----------------8\7--------------------------------------------------------|
A|--0-0-0-0--0-0--6\5--0-0-0-0-0-0-0-0--0--0-0-0-0--0------------------------|
E|--0-0-0-0--0-0-------0-0-0-0-0-0-0-0--0--0-0-0-0--0------------------------|

e|---------------------------------------------------------------------------|
B|---------------------------------------------------------------------------|
G|---------------------------------------------------------------------------|
D|----------------8\7---------4-4---------1----------------------------------|
A|--0-0-0-0--0-0--6\5--0-0-0--4-4--0-0-0--1--0-0-----------------------------|
E|--0-0-0-0--0-0-------0-0-0--4-4--0-0-0--1--0-0--1h4------------------------|
   End with !
e|---------------------------------------------------------------------------|
B|---------------------------------------------------------------------------|
G|---------------------------------------------------------------------------|
D|--------8\7---------4-4----------------------------------------------------|
A|--!0-0--6\5--0-0-0--4-4--0--0--0--0--0-------------------------------------|
E|--!0-0-------0-0-0--4-4--0--0--0--0--0-------------------------------------|
   Play 2X Palm mute
e|---------------------------------------------------------------------------|
B|---------------------------------------------------------------------------|
G|---------------------------------------------------------------------------|
D|-------------------------------------------4-4-4-4-------------------------|
A|--0-0-0--0--0-0-0--0-0-0--0--0-0-0--0-0-0--1-1-1-1-------------------------|
E|--0-0-0--0--0-0-0--0-0-0--0--0-0-0--0-0-0----------------------------------|
   2nd time playing end with !
e|---------------------------------------------------------------------------|
B|---------------------------------------------------------------------------|
G|---------------------------------------------------------------------------|
D|---------------------------------------------------------------------------|
A|--0-0-0--0--0-0-0--0-0-0--0--0-0-0--0---!Pickslide-------------------------|
E|--0-0-0--0--0-0-0--0-0-0--0--0-0-0--0---!Pickslide-------------------------|
   Play 2X
e|---------------------------------------------------------------------------|
B|---------------------------------------------------------------------------|
G|---------------------------------------------------------------------------|
D|-----------------------------------7x4---------10x4------------------------|
A|-------6x4------6x4-9x4--------6x4-----6x4-5x4-----------------------------|
E|--0x16------0x8----------0x16----------------------------------------------|
  2nd time playing only 0 are palm muted
e|---------------------------------------------------------------------------|
B|---------------------------------------------------------------------------|
G|---------------------------------------------------------------------------|
D|-----------------------------------7x4-------------------------------------|
A|-------6x4------6x4-9x4--------6x4-----6x4-5x4-8x4-------------------------|
E|--0x16------0x8----------0x16----------------------------------------------|
 Chorus  Play 2X 2nd time playing this end with !
e|---------------------------------------------------------------------------|
B|---------------------------------------------------------------------------|
G|---------------------------------------------------------------------------|
D|---------------------------------------------------------------------------|
A|------5x6-----6x6-----5x6-----1x6------------------------------------------|
E|--5x6-----5x6-----5x6-----1x6-----0x6-7x6--7--8--7-------------------------|
  
e|-----------------------------------------|---------------------------------|
B|-----------------------------------------|---------------------------------|
G|-----------------------------------------|---------------------------------|
D|-----------------------------------------|--!5---5---5\1-------------------|
A|------5x6-----6x6-----5x6----------------|--!5---5---5\1-------------------|
E|--5x6-----5x6-----5x6-----8x6-10x6-13x16-|--!5---5---5\1-------------------|

   Play 2X   This part is sort of confusing just listen to this part of the song
e|---------------------------------------------------------------------------|
B|---------------------------------------------------------------------------|
G|---------------------------------------------------------------------------|
D|-------------------------------8-------7-----------------------------------|
A|--0-0-0--0--0-0-0--0--0-0-0-0--6--0-0--5-----------------------------------|
E|--0-0-0--0--0-0-0--0--0-0-0-0-----0-0--------------------------------------|
  Play 3rd time      Play 5th time p+ is pinch harmonic
e|----------------|----------------------------------------------------------|
B|----------------|----------------------------------------------------------|
G|----------------|----------------------------------------------------------|
D|----------------|----------------------------------------------------------|
A|--------------6b|-------------5p+------------------------------------------|
E|--0-0-0--0-0----|--0-0-0--0-0----------------------------------------------|

e|---------------------------------------------------------------------------|
B|---------------------------------------------------------------------------|
G|---------------------------------------------------------------------------|
D|--8-----7---------------------8-----7--------------------------------------|
A|--6-----5-------0--0-0-0--0---6-----5--0--0-0--Pickslide-------------------|
E|----0-0---0-0---0--0-0-0--0-----0-0----0--0-0--Pickslide-------------------|
 
 play 2x end with 0 0 0 0 After this do a slide from 12th fret then play Chorus
e|-----------------------------------------------------------------|---------|
B|-----------------------------------------------------------------|---------|
G|-----------------------------------------------------------------|---------|
D|-----------------------------------------------------------------|---------|
A|--5h6---5br-----5br---5br---9-10-9--5h6---5br-----5br------------|0-0-0-0--|
E|------0-----0-0-----0-----0-------------0-----0-0-----0-4-5-0-1-3|0-0-0-0--|
  End song with
e|---------------------------------------------------------------------------|
B|---------------------------------------------------------------------------|
G|---------------------------------------------------------------------------|
D|----------------8\7--------------------------------------------------------|
A|--0-0-0-0--0-0--6\5--0-0-0-0-0-0-0-0--0--0-0-0-0--0------------------------|
E|--0-0-0-0--0-0-------0-0-0-0-0-0-0-0--0--0-0-0-0--0------------------------|
  2nd time playing end with !
e|---------------------------------------------------|-----------------------|
B|---------------------------------------------------|-----------------------|
G|---------------------------------------------------|-----------------------|
D|----------------8\7---------4-4---------1----------|!4-4-------------------|
A|--0-0-0-0--0-0--6\5--0-0-0--4-4--0-0-0--1--0-0-----|!4-4--1-1-1-0----------|
E|--0-0-0-0--0-0-------0-0-0--4-4--0-0-0--1--0-0--1h4|!4-4--1-1-1-0----------|


************************************

| /   slide up
| \   slide down
| h   hammer-on
| p   pull-off
| ~   vibrato
| +   harmonic
| x   Mute note
| b   Bend
| pb  Pre-bend
| br  Bend release
| pbr Pre-bend release
| brb Bend release bend

************************************
Tap to rate this tab
 
# A B C D E F G H I J K L M N O P Q R S T U V W X Y Z