Song name
# A B C D E F G H I J K L M N O P Q R S T U V W X Y Z

The Devil Wears Prada - My Questions tab

C#|-----------/13---------------------17------------------------------|
G#|---------------12-10/----------------------------------------------|
E |-----10------------------10--10/15-15------------------------------|
B |-/12----12-----------/12-------------------------------------------|
F#|-------------------------------------------------------------------|
B |-------------------------------------------------------------------|
   

C#|-----------/13-------13-15/17-17-----------------------------------|
G#|---------------12-10-----------------------------------------------|
E |-----10-----------------------15-----------------------------------|
B |-/12----12---------------------------------------------------------|
F#|-------------------------------------------------------------------|
B |-------------------------------------------------------------------|

Well it's only the intro but enjoy!(:
Tap to rate this tab
 
# A B C D E F G H I J K L M N O P Q R S T U V W X Y Z