Song name
# A B C D E F G H I J K L M N O P Q R S T U V W X Y Z

The Devil Wears Prada - Forever Decay tab

Song: Forever Decay
Artist: The Devil Wears Prada
Album: Dead Throne (2011)
Tuning: Drop C (YES, this song plays in drop C)


Riff 1
 D|----------------------------------------------------------------------------|
 A|----------------------------------------------------------------------------|
 F|-------------------------------------------------3---4----------------------|
 C|-------------------------------------------------------2-4-5----------------|
 G|---1-----1---1---1/5-----------------------------------------2-4-5----------|
 C|-----0-0---0---0-----0-0-0-0-0-0-0-0-0-0-0-0-0-0----------------------------|
                                     
 D|----------------------------------------------------------------------------|
 A|----------------------------------------------------------------------------|
 F|-------------------------------------------------3---4----------------------|
 C|-------------------------------------------------------2-4-5----------------|
 G|---1-----1---1---1/5-----------------------------------------2-[4]----------|
 C|-----0-0---0---0-----0-0-0-0-0-0-0-0-0-0-0-0-0-0----------------------------|
                                     

Guitar 1
 D|----------------------------------------------------------------------------|
 A|----------------------------------------------------------------------------| x2
 F|-------------------------------------------------3---5----------------------|
 C|-------------------------------------------------------2-4-5----------------|
 G|---2-2-2-2---2---2-2-2---4-4-4-4-0-0-0-0---0---0-------------2-4-5----------|
 C|---2-2-2-2---2---2-2-2---4-4-4-4-0-0-0-0---0---0----------------------------|
                                 


Chorus
 D|----------------------------------------------------------------------------|
 A|----------------------------------------------------------------------------| x2
 F|----------------------------------------------------------------------------|
 C|---0-~-------------8-7-8-7-~-------0-~-----------------8-7-8-11-~-----------|
 G|---0-~-------------8-7-8-7-~-------0-~-----------------8-7-8-11-~-----------|
 C|---0-~-------------8-7-8-7-~-------0-~-----------------8-7-8-11-~-----------|

 D|----------------------------------------------------------------------------|
 A|---- Tremolo Picking -------------------------------------------------------| x2
 F|----------------------------------------------------------------------------|
 C|----------------------------------------------------------------------------|
 G|----------------------------------------------------------------------------|
 C|---0---------------8-7-8-7---------0---------------8-7-811------------------|



Post Chorus
 D|----------------------------------------------------------------------------|
 A|----------------------------------------------------------------------------|
 F|----------------------------------------------------------------------------|
 C|----------------------------------------------------------------------------|
 G|---0---0-0-0-0-------0-0-0-0-0-0-0-------0---0-0-0-0---0-0-0-0-0-0-0--------|
 C|---0---0-0-0-0-------0-0-0-0-0-0-0-------0---0-0-0-0---0-0-0-0-0-0-0--------|
                                                          X2
 D|----------------------------------------------------------------------------|
 A|----------------------------------------------------------------------------|
 F|----------------------------------------------------------------------------|
 C|----------------------------------------------------------------------------|
 G|---0---0-0-0-0-------0-0-0-0-0-0-0-------0---0-0-0-0---0-0-0-0-0-0-1---1---1|
 C|---0---0-0-0-0-------0-0-0-0-0-0-0-------0---0-0-0-0---0-0-0-0-0-0-1---1---1|
                                                     



Pre-Riff
 D|----------------------------------------------------------------------------|
 A|----------------------------------------------------------------------------|
 F|----------------------------------------------------------------------------|
 C|----------------------------------------------------------------------------|
 G|---1-----1---1---1/5-----------1-----1---1---1/5----------------------------|
 C|-----0-0---0---0-----0-0-0-0-0---0-0---0---0-----0000000000-----------------|
                                       


Riff 1
 D|----------------------------------------------------------------------------|
 A|----------------------------------------------------------------------------|
 F|-------------------------------------------------3---4----------------------|
 C|-------------------------------------------------------2-4-5----------------|
 G|---1-----1---1---1/5-----------------------------------------2-4-5----------|
 C|-----0-0---0---0-----0-0-0-0-0-0-0-0-0-0-0-0-0-0----------------------------|
                                     
 D|----------------------------------------------------------------------------|
 A|----------------------------------------------------------------------------|
 F|-------------------------------------------------3---4----------------------|
 C|-------------------------------------------------------2-4-5----------------|
 G|---1-----1---1---1/5-----------------------------------------2-[4]----------|
 C|-----0-0---0---0-----0-0-0-0-0-0-0-0-0-0-0-0-0-0----------------------------|
                                     


Riff 2
 D|----------------------------------------------------------------------------|
 A|----------------------------------------------------------------------------|
 F|----------------------------------------------------------------------------|
 C|---1-----1---1---1-0---0---8---7--------------------------------------------|
 G|---1-----1---1---1-0---0---6---5---00000-0-0-0-0-0-00000-0-0-0-0-0----------|
 C|---1-1-1-1-1-1-1-1-0-0---0---0---0-00000-0-0-0-0-0-00000-0-0-0-0-0----------|
                                         
 D|----------------------------------------------------------------------------|
 A|----------------------------------------------------------------------------|
 F|----------------------------------------------------------------------------|
 C|---1-----1---1---1-0---0---8---7--------------------------------------------|
 G|---1-----1---1---1-0---0---6---5---00000-0-0-0-0-0-00000-0-0-0-0-0-0-0-0-0-0|
 C|---1-1-1-1-1-1-1-1-0-0---0---0---0-00000-0-0-0-0-0-00000-0-0-0-0-0-0-0-0-0-0|
                                              

 Break Down
 D|----------------------------------------------------------------------------|
 A|----------------------------------------------------------------------------|
 F|----------------------------------------------------------------------------|
 C|----------------------------------------------------------------------------|
 G|--00000-0-0-0-0-0-0---00000-0-0-0-0-0-00000-0-0-0-0-0-00000-0-0-0-0-0-0-----|
 C|--00000-0-0-0-0-0-0---00000-0-0-0-0-0-00000-0-0-0-0-0-00000-0-0-0-0-0-0-----|
                                        X2
 D|----------------------------------------------------------------------------|
 A|----------------------------------------------------------------------------|
 F|----------------------------------------------------------------------------|
 C|----------------------------------------------------------------------------|
 G|--00000-0-0-0-0-0-00000-0-0-0-----------------------------------------------|
 C|--00000-0-0-0-0-0-00000-0-0-0-----------------------------------------------|
           




 Bridge
( I know the notes are all mashed up, but listen to the part and figure it out yourself 
if you have trouble following the tab, this part is harder to tab. )
 D|----------------------------------------------------------------------------|
 A|----------------------------------------------------------------------------| X3
 F|---7-7-7-7-9-9-9-910101010121212121414141417171417171419191717171717--------|
 C|---X-X-X-X-X-X-X-X-X-X-X-X-X-X-X-X-X-X-X-X-X-X-X-X-X-X-X-X-X-X-X-X-X--------|
 G|---5-5-5-5-7-7-7-7-8-8-8-8101010101212121215151215151217171515151515--------|
 C|----------------------------------------------------------------------------|

 D|--------------------------------|
 A|--------------------------------|
 F|--------------------------------|
 C|---5-5-5-5-3-3-3-3-----0-~------|
 G|---5-5-5-5-3-3-3-3-----0-~------|
 C|---5-5-5-5-3-3-3-3-----0-~------|



Chorus
 D|----------------------------------------------------------------------------|
 A|----------------------------------------------------------------------------| x2
 F|----------------------------------------------------------------------------|
 C|---0-~-------------8-7-8-7-~-------0-~-----------------8-7-8-11-~-----------|
 G|---0-~-------------8-7-8-7-~-------0-~-----------------8-7-8-11-~-----------|
 C|---0-~-------------8-7-8-7-~-------0-~-----------------8-7-8-11-~-----------|

 D|----------------------------------------------------------------------------|
 A|---- Tremolo Picking -------------------------------------------------------| x2
 F|----------------------------------------------------------------------------|
 C|----------------------------------------------------------------------------|
 G|----------------------------------------------------------------------------|
 C|---0---------------8-7-8-7---------0---------------8-7-811------------------|



Post Chorus
 D|----------------------------------------------------------------------------|
 A|----------------------------------------------------------------------------|
 F|----------------------------------------------------------------------------|
 C|----------------------------------------------------------------------------|
 G|---0---0-0-0-0-------0-0-0-0-0-0-0-------0---0-0-0-0---0-0-0-0-0-0-0--------|
 C|---0---0-0-0-0-------0-0-0-0-0-0-0-------0---0-0-0-0---0-0-0-0-0-0-0--------|
                                               
 D|----------------------------------------------------------------------------|
 A|----------------------------------------------------------------------------|
 F|----------------------------------------------------------------------------|
 C|----------------------------------------------------------------------------|
 G|---0---0-0-0-0-------0-0-0-0-0-0-0-------0---0-0-0-0---0-0-0-0-0-0-1---1---1|
 C|---0---0-0-0-0-------0-0-0-0-0-0-0-------0---0-0-0-0---0-0-0-0-0-0-1---1---1|
                                                     
 D|----------------------------------------------------------------------------|
 A|----------------------------------------------------------------------------|
 F|----------------------------------------------------------------------------|
 C|----------------------------------------------------------------------------|
 G|---0---0-0-0-0-------0-0-0-0-0-0-0-------0---0-0-0-0---0-0-0-0-0-0-0-0-0-0-0|
 C|---0---0-0-0-0-------0-0-0-0-0-0-0-------0---0-0-0-0---0-0-0-0-0-0-0-0-0-0-0|
                                                   
 D|----------------------------------------------------------------------------|
 A|----------------------------------------------------------------------------|
 F|----------------------------------------------------------------------------|
 C|----------------------------------------------------------------------------|
 G|---0---0-0-0-0-------0-0-0-0-0-0-0-------0---0-0-0-0---0-0-0-0-0-0----------|
 C|---0---0-0-0-0-------0-0-0-0-0-0-0-------0---0-0-0-0---0-0-0-0-0-0-10-9\----|
                                              

Compiled with TabPlayer :: http://www.simoneperandini.com/tabplayer/
Tap to rate this tab
# A B C D E F G H I J K L M N O P Q R S T U V W X Y Z