Song name
# A B C D E F G H I J K L M N O P Q R S T U V W X Y Z

The Devil Wears Prada - Assistant To The Regional Manager tab

Here is the little sweep that I bet you love.
Its in Drop b so make sure your tuned to drop b.

Sweeping part:
c#|-17p13-------13h17p13--------------------------------------|
g#|------15--15---------15------------------------------------|
e |--------14-------------14--14h15p14------------------------|
b |----------------------------------15h17--------------------|
f#|-------------------------------------14h15p14--15h17-------|
b |-----------------------------------------------------------|

c#|-17p13-------13h17p13----------------------------17/20-----|
g#|------15--15---------15------------------------------------|
e |--------14-------------14-14h15p14----15h17p15-------------| 2x
b |----------------------------------15h17--------------------|
f#|-----------------------------------------------------------|
b |-----------------------------------------------------------|

hope you like it. I'll be sure to post more songs from The Devil Wears Prada.
=D
Tap to rate this tab
# A B C D E F G H I J K L M N O P Q R S T U V W X Y Z