Song name
# A B C D E F G H I J K L M N O P Q R S T U V W X Y Z

The Devil Wears Prada - My Questions tab

Legend:

~ = Let Ring               / = Slide Up

pm = Palm Mute             \ = Slide Down

x = Dead Note              h = Hammer-On

p = Pull-Off               t = Tremelo Pick

1st Verse (0:14-0:47)

Rhythm
                                               (the 5 and 7 may have a slight bend or vibrato)
e|----------------------------------------------------------------------------------| play 2x
B|----------------------------------------------------------------------------------|
G|----------------------------------------------------------------------------------|
D|----------------------------------------------------------------------------------|
A|-0-0-----0-0---------0-0-0--0-0-0--------------0-0-----0-0------------------------|
E|-0-0-----0-0---------0-0-0--0-0-0--------------0-0-----0-0-----------5--------7---|
 pm. .     . .         . . .  . . .              . .     . .

Lead

e|------------/12--------------------/17-17\----------------/13-12----15----17-17\--| play 2x
B|---6-----------13-10-------6----------------------6--------------13----13---------|
G|-7---7-------------------7---7---------15\------7---7------------------------15\--|
D|----------------------------------------------------------------------------------|
A|----------------------------------------------------------------------------------|
E|----------------------------------------------------------------------------------|

Rhythm
                                    (the 5 and 7 may have a slight bend or vibrato)
e|----------------------------------------------------------------------------------| play 2x
B|----------------------------------------------------------------------------------|
G|----------------------------------------------------------------------------------|
D|----------------------------------------------------------------------------------|
A|-0-0-0---0-0---------0-0-0--0-0-0--------------0-0-0---0-0------------------------|
E|-0-0-0---0-0---------0-0-0--0-0-0--------------0-0-0---0-0-----------5--------7---|
 pm. .     . .         . .    . . .              . .     . .

Lead

e|------------/12--------------------/17-17\----------------/13-12----15----17-17\--| play 2x
B|---6-----------13-10-------6----------------------6--------------13----13---------|
G|-7---7-------------------7---7---------15\------7---7------------------------15\--|
D|----------------------------------------------------------------------------------|
A|----------------------------------------------------------------------------------|
E|----------------------------------------------------------------------------------|

Rhythm
(after there palm mute there may be some quickly strummed dead notes, can't tell if
 it's guitar or not, listen to the song and let me know what you think in the comments)
e|-----------------------------------------------------|
B|-----------------------------------------------------|
G|-----------------------------------------------------|
D|-----------------------------------------------------|
A|---0~----------------------------0-------------------|
E|---0~----------------------------0-------------------|
                                 pm.
Lead

e|-----------------------------------------------------|
B|---6~--------5~--------8~--------8h10p8--------------|
G|---7~--------7~--------9~----------------9h10p9-7\---|
D|-----------------------------------------------------|
A|-----------------------------------------------------|
E|-----------------------------------------------------|

1st Chorus (0:48-1:01)

Rhythm
(strumming)
e|---------------------------------------------------------------------|
B|---------------------------------------------------------------------|
G|---------------------------------------------------------------------|
D|--8------------------------------0-----------------------------------|
A|--8------------------------------0-----------------------------------|
E|--8------------------------------0-----------------------------------|

Lead 

e|---------------------------------------------------------------------|
B|---------------------------------------------------------------------|
G|-18\141414141414/15\12/14141414/18\141414141414/171717\14141414------|
D|--x--x-x-x-x-x-x--x--x--x-x-x-x--x--x-x-x-x-x-x--x-x-x--x-x-x-x------|
A|-16\121212121212/13\10/12121212/16\121212121212/151515\12121212------|
E|---------------------------------------------------------------------|

Rhythm
(strumming)
e|---------------------------------------------------------------------|
B|---------------------------------------------------------------------|
G|---------------------------------------------------------------------|
D|--5------------------------------7-----------------------------------|
A|--5------------------------------7-----------------------------------|
E|--5------------------------------7-----------------------------------|

Lead

e|---------------------------------------------------------------------|
B|---------------------------------------------------------------------|
G|-18\141414141414/15\12/14141414/18181818181818181818181818181818/19~-|
D|--x--x-x-x-x-x-x--x--x--x-x-x-x--x-x-x-x-x-x-x-x-x-x-x-x-x-x-x-x--x--|
A|-16\121212121212/13\10/12121212/16161616161616161616161616161616/17~-|
E|---------------------------------------------------------------------|

Post Chorus (1:01-1:14)

Rhythm

e|---------------------------------------------------------------------------| play 2x 
B|---------------------------------------------------------------------------|
G|---------------------------------------------------------------------------|
D|---------------------------------------------------------------------------|
A|----0--0--0----------0--0--0----------0--0--0----------0--0--0-------------|
E|----0--0--0----------0--0--0----------1--1--1----------1--1--1-------------|

2nd ending

e|---------------------|
B|---------------------|
G|---------------------|
D|---Pick Slide\-------|
A|---Pick Slide\-------|
E|---Pick Slide\-------|

Lead

e|---------------------------------------------------------------------------| play 2x
B|---------------------------------------------------------------------------|
G|---------------------------------------------------------------------------|
D|---------------------------------------------------------------------------|
A|------------0--0--0----------0--0--0----------0--0--0----------0--0--0-----|
E|------------0--0--0----------0--0--0----------1--1--1----------1--1--1-----|

2nd Verse (1:15-1:29)

Rhythm
                                    (the 5 and 7 may have a slight bend or vibrato)
e|----------------------------------------------------------------------------------|
B|----------------------------------------------------------------------------------|
G|----------------------------------------------------------------------------------|
D|----------------------------------------------------------------------------------|
A|-0-0-----0-0---------0-0-0--0-0-0--------------0-0-----0-0------------------------|
E|-0-0-----0-0---------0-0-0--0-0-0--------------0-0-----0-0-----------5--------7---|
 pm. .     . .         . . .  . . .              . .     . .

Lead

e|------------/12--------------------/17-17\----------------/13-12----15----17-17\--|
B|---6-----------13-10-------6----------------------6--------------13----13---------|
G|-7---7-------------------7---7---------15\------7---7------------------------15\--|
D|----------------------------------------------------------------------------------|
A|----------------------------------------------------------------------------------|
E|----------------------------------------------------------------------------------|

Rhythm
                                    (the 5 and 7 may have a slight bend or vibrato)
e|--------------------------------------------------------------------------------------------|
B|--------------------------------------------------------------------------------------------|
G|--------------------------------------------------------------------------------------------|
D|--------------------------------------------------------------------------------------------|
A|-0-0-0---0-0---------0-0-0--0-0-0--------------0-0-0---0-0---------0-0-0-0----0-0-0-0----0-0|
E|-0-0-0---0-0---------0-0-0--0-0-0--------------0-0-0---0-0---------0-0-0-0----0-0-0-0----0-0|
 pm. .     . .         . .    . . .              . .     . .         . . . .    . . . .    . .

Lead

e|------------/12--------------------/17-17\----------------/13-12------------------|
B|---6-----------13-10-------6----------------------6--------------13---------------|
G|-7---7-------------------7---7---------15\------7---7-----------------------------|
D|----------------------------------------------------------------------------------|
A|----------------------------------------------------------------------------------|
E|----------------------------------------------------------------------------------|

1st Breakdown (1:29-1:56)

Rhythm

e|----------------------------------------------| play 2x
B|----------------------------------------------|
G|----------------------------------------------|
D|--0--0--0--1--0--0~-----0--0--0--1--0---------|
A|--0--0--0--1--0--0~-----0--0--0--1--0---------|
E|--0--0--0--1--0--0~-----0--0--0--1--0--/4~----|

e|---------------------------------------------------------------------------|
B|----------------7-------7------------------------------7-------7-----------|
G|----------------7-------7------------------------------7-------7-----------|
D|-Pick Slide\----x-------x--------------Pick Slide\-----x-------x-----------|
A|-Pick Slide\----5-------5--------------Pick Slide\-----5-------5-----------|
E|-Pick Slide\------0------/8--0--0-----Pick Slide\---------0------/8--0--11~|
                  pm.                                     pm.

e|---------------------------------------------------------------------------|
B|------------------------7-------7------------------------------------------|
G|------------------------7-------7------------------------------------------|
D|------------------------x-------x------------------------------------------|
A|--0--0--0--1--0--0------5-------5------------------------------------------|
E|--0--0--0--1--0--0---------0---------/8--0--11~---11\----------------------|
  pm.  .  .     .          pm.

2nd Chorus (1:56-2:23)

Rhythm
(strumming)
e|---------------------------------------------------------------------|
B|---------------------------------------------------------------------|
G|---------------------------------------------------------------------|
D|--8------------------------------0-----------------------------------|
A|--8------------------------------0-----------------------------------|
E|--8------------------------------0-----------------------------------|

Lead 

e|---------------------------------------------------------------------|
B|---------------------------------------------------------------------|
G|-18\141414141414/15\12/14141414/18\141414141414/171717\14141414------|
D|--x--x-x-x-x-x-x--x--x--x-x-x-x--x--x-x-x-x-x-x--x-x-x--x-x-x-x------|
A|-16\121212121212/13\10/12121212/16\121212121212/151515\12121212------|
E|---------------------------------------------------------------------|

Rhythm
(strumming)
e|---------------------------------------------------------------------|
B|---------------------------------------------------------------------|
G|---------------------------------------------------------------------|
D|--5------------------------------7-----------------------------------|
A|--5------------------------------7-----------------------------------|
E|--5------------------------------7-----------------------------------|

Lead

e|---------------------------------------------------------------------|
B|---------------------------------------------------------------------|
G|-18\141414141414/15\12/14141414/18181818181818181818181818181818-----|
D|--x--x-x-x-x-x-x--x--x--x-x-x-x--x-x-x-x-x-x-x-x-x-x-x-x-x-x-x-x-----|
A|-16\121212121212/13\10/12121212/16161616161616161616161616161616-----|
E|---------------------------------------------------------------------|

Rhythm

e|---------------------------------------------------------------------|
B|---------------------------------------------------------------------|
G|---------------------------------------------------------------------|
D|---------------------------------------------------------------------|
A|---------------------------------------------------------------------|
E|--8t----------------------------0t-----------------------------------|

Lead 

e|---------------------------------------------------------------------|
B|---------------------------------------------------------------------|
G|-18\141414141414/15\12/14141414/18\141414141414/171717\14141414------|
D|--x--x-x-x-x-x-x--x--x--x-x-x-x--x--x-x-x-x-x-x--x-x-x--x-x-x-x------|
A|-16\121212121212/13\10/12121212/16\121212121212/151515\12121212------|
E|---------------------------------------------------------------------|

Rhythm 

e|---------------------------------------------------------------------|
B|---------------------------------------------------------------------|
G|---------------------------------------------------------------------|
D|---------------------------------------------------------------------|
A|---------------------------------------------------------------------|
E|--5t---------------------------7t------------------------------------|

Lead

e|---------------------------------------------------------------------|
B|---------------------------------------------------------------------|
G|-18\141414141414/15\12/14141414/18181818181818181818181818181818/19~-|
D|--x--x-x-x-x-x-x--x--x--x-x-x-x--x-x-x-x-x-x-x-x-x-x-x-x-x-x-x-x--x--|
A|-16\121212121212/13\10/12121212/16161616161616161616161616161616/17~-|
E|---------------------------------------------------------------------|

Post Chorus (2:24-2:37)

Rhythm

e|---------------------------------------------------------------------------------------|
B|---------------------------------------------------------------------------------------|
G|---------------------------------------------------------------------------------------|
D|---------------------------------------------------------------------------------------|
A|----0--0--0---0--0--0---0--0--0---0--0--0---0--0--0---0--0--0---0--0--0---0--0--0------|
E|----0--0--0---0--0--0---0--0--0---0--0--0---1--1--1---1--1--1---1--1--1---1--1--1------|
    pm.  .  .   .  .  .   .  .  .   .  .  .   .  .  .   .  .  .   .  .  .   .  .  . 

Lead

e|---/12----------------/17---17-18p17-17\--/12----------------/17---17-18p17-17\--------|
B|-------13-10-11p10-10-------------------------13-10-11p10-10---------------------------|
G|-------------------------15----------15\------------------------15----------15\--------|
D|---------------------------------------------------------------------------------------|
A|---------------------------------------------------------------------------------------|
E|---------------------------------------------------------------------------------------|

Rhythm

e|---------------------------------------------------------------------------------------|
B|---------------------------------------------------------------------------------------|
G|---------------------------------------------------------------------------------------|
D|---------------------------------------------------------------------------------------|
A|----0--0--0---0--0--0---0--0--0---0--0--0---0--0--0---0--0--0---0--0--0---1--1---------|
E|----0--0--0---0--0--0---0--0--0---0--0--0---1--1--1---1--1--1---1--1--1---1--1---------|
    pm.  .  .   .  .  .   .  .  .   .  .  .   .  .  .   .  .  .   .  .  .   

Lead

e|---/12----------------/17---17-18p17-17\--/12----------------/17---17-18----18\--------|
B|-------13-10-11p10-10-------------------------13-10-11p10-10---------------------------|
G|-------------------------15----------15\------------------------15----------15\--------|
D|---------------------------------------------------------------------------------------|
A|---------------------------------------------------------------------------------------|
E|---------------------------------------------------------------------------------------|

2nd Breakdown (2:37-3:09)

Rhythm
                   (play first part 3x, then ending 1x)
e|-------------------------------------|-------------------------------| play 2x
B|---------6---------------------------|-------------------------------|
G|---------7---------------------------|-------------------------------|
D|-------------------4--------1--------|-------------------------------|
A|---0---------0--0--4--0--0--1--0-----|--0--0----0-0-0-0---00---------|
E|---0---------0--0--4--0--0--1--0-----|--0--0----0-0-0-0---00---------|
   pm.         .  .     .  .              .  .    . . . .   ..
Rhythm
 (entirely palm muted)
e|----------------------------------------------------------------------------| 
B|----------------------------------------------------------------------------|
G|----------------------------------------------------------------------------|
D|-0-0-0-0--0-0-0-0--0-0-0-0--0-0-0-0------0-0-0-0--0-0-0-0--0-0-0-0--0-0-0-0-|
A|-0-0-0-0--0-0-0-0--0-0-0-0--0-0-0-0------0-0-0-0--0-0-0-0--0-0-0-0--0-0-0-0-|
E|-0-0-0-0--0-0-0-0--0-0-0-0--0-0-0-0------0-0-0-0--0-0-0-0--0-0-0-0--0-0-0-0-|

Lead

e|--------------------------------------------------------------------------17-17\--|
B|----------------------------------------------------------------------------------|
G|-----------------------------------------------------------------------------15\--|
D|----------------------------------------------------------------------------------|
A|----------------------------------------------------------------------------------|
E|----------------------------------------------------------------------------------|
Rhythm
 (entirely palm muted)
e|----------------------------------------------------------------------------| 
B|----------------------------------------------------------------------------|
G|----------------------------------------------------------------------------|
D|-0-0-0-0--0-0-0-0--0-0-0-0--0-0-0-0------0-0-0-0--0-0-0-0--0-0-0-0--0-0-0-0-|
A|-0-0-0-0--0-0-0-0--0-0-0-0--0-0-0-0------0-0-0-0--0-0-0-0--0-0-0-0--0-0-0-0-|
E|-0-0-0-0--0-0-0-0--0-0-0-0--0-0-0-0------0-0-0-0--0-0-0-0--0-0-0-0--0-0-0-0-|

Lead

e|------------/12--------------------/17-17\----------------/13-12----15----17-17\--|
B|---6-----------13-10-------6----------------------6--------------13----13---------|
G|-7---7-------------------7---7---------15\------7---7------------------------15\--|
D|----------------------------------------------------------------------------------|
A|----------------------------------------------------------------------------------|
E|----------------------------------------------------------------------------------|

Rhythm
                  
e|-----------------------------------|
B|-----------------------------------|
G|-----------------------------------|
D|-----------------------------------|
A|-----------------------------------|
E|---0-0-0-0---0-0-0-0---0-0-0-0-0---|

Any feedback or corrections is encouraged.

Here is an alternate way to play the intro leads. 
I couldn't figure out which is correct because I couldn't find any live performances of this song.

|------/12-----------------17-------/12h13-12--17--17-17-17-17-|
|----6-/--13-------6--------------6-/--------13--20---x--x--x--|
|-5h7-7/----14--5h7-7-10/15----5h7-7/-----------------15-15-15-|
|--------------------------------------------------------------|
|--------------------------------------------------------------|
|--------------------------------------------------------------|
Tap to rate this tab
# A B C D E F G H I J K L M N O P Q R S T U V W X Y Z