Song name
# A B C D E F G H I J K L M N O P Q R S T U V W X Y Z

The Devil Wears Prada - Transgress tab

Artist: The Devil Wears Prada
Album: 8:18
Song: Transgress

Tuning: Drop B


If you have any corrections, please leave a comment and i will fix it


Intro 
E|-------------------------------|
B|-18-17---17-18---18-15---15-18-|
G|-------------------------------|
D|-------------------------------|
A|-------------------------------|
E|-------------------------------|

Tremolo picked intro:
E|-9/17-15-18-20-17-15-18-|
B|------------------------|
G|------------------------|
D|------------------------|
A|------------------------|
E|------------------------|


Verse 1
E|----------------------|
B|---10---10~-----------|
G|-7----7-------12-10-9-|
D|----------------------|
A|----------------------|
E|----------------------|

E|-------------------------------|
B|---10---10~--10-10-15-------15-|
G|-7----7---------------13-12----|
D|-------------------------------|
A|-------------------------------|
E|-------------------------------|

PreChorus
tremolo picked/palmmuted
E|-------------------------------|
B|-------------------------------|
G|-77777777777777777777777777777-|
D|-------------------------------|
A|-------------------------------|
E|-------------------------------|


PreChorus
Strum these Chords multiple times
E|-------------|
B|-------------|
G|7-9-10-------|
D|5-7--8-15-14-|
A|5-7--8-12-10-|
E|5-7--8-12-10-|

Chorus
E|-----------------------------------------------------|
B|-----------------------------------------------------|
G|-----------------------------------------------------|
D|-----8-----8-----8-----9-----12-----12-----12-----12-|
A|-----------------------------------------------------|
E|-555---555---555---777---888----888----888----888----|


E|----------------------------------------|
B|----------------------------------------|
G|----------------------------------------|
D|-------15--------15--------15--------15-|
A|----------------------------------------|
E|-121212----121212----121212----121212---|

|----------------------------------------|
|----------------------------------------|
|----------------------------------------|
|-------14--------14--------14--------14-|
|----------------------------------------|
|-101010----101010----101010----101010---|

Play some Open Chords in this break

E|----------------------------------------|
B|----------------------------------------|
G|7-7-7---9-10-10-10-10-10-10-10-10-------|
D|5-5-5---7--8--8--8--8--8--8--8--8-15-14-|
A|5-5-5---7--8--8--8--8--8--8--8--8-12-10-|
E|5-5-5---7--8--8--8--8--8--8--8--8-------|
                                     t  t

E|-----------------------------------------------------|
B|-----------------------------------------------------|
G|-----------------------------------------------------|
D|-----8-----8-----8-----9-----12-----12-----12-----12-|
A|-----------------------------------------------------|
E|-555---555---555---777---888----888----888----888----|


E|----------------------------------------|
B|----------------------------------------|
G|----------------------------------------|
D|-------15--------15--------15--------15-|
A|----------------------------------------|
E|-121212----121212----121212----121212---|

|----------------------------------------|
|----------------------------------------|
|----------------------------------------|
|-------14--------14--------14--------14-|
|----------------------------------------|
|-101010----101010----101010----101010---|
Tap to rate this tab
# A B C D E F G H I J K L M N O P Q R S T U V W X Y Z