Song name
# A B C D E F G H I J K L M N O P Q R S T U V W X Y Z

The Devil Wears Prada - Gauntlet Of Solitude tab

----------------------------------------------------------------------------
                  Gauntlet Of Solitude - The Devil Wears Prada             
----------------------------------------------------------------------------
Tabbed by: rockonmetal83
Email: therabbit99999@yahoo.com

Tuning: Drop D

Intro
e|---------|
B|---------|
G|---------|
D|-0~------|
A|-0~------|
D|-0~--/17-|


e|----------------------------|---------------------|
B|----------------------------|---------------------|
G|----------------------------|-----------------17~-|
D|----------14-15-17-15-14h15-|---------14-15-17----|
A|----14-15-------------------|---14-15-------------|
D|-00---0--0--0--0--0--0------|-00--0--0--0--0------|
P.M..   .  .  .  .  .  .        ..  .  .  .  .

e|--------------------------|
B|--------------------------|
G|----------13-14-16-14-----|    (They do something at the end of the riff
D|----13-14-----------------|     during the verse which i cant figure out)
A|--------------------------|
D|-00---0--0--0--0--0--0----|
P.M..   .  .  .  .  .  .


0:24                         V- Scrape your pick lighly across these
e|------------------------------|
B|---------------------------3~-|
G|-10-10-10-10-10~-----------2~-|
D|-x--x--x--x--x---------0~--0~-|
A|-8--8--8--8--8~--------0~-----|
D|-----------------------0~-----|

0:38
e|---------------------------------|----------------------------|
B|---------------------------------|----------------------------|
G|---------5-4-3-2-----------------|---------5-4-3-2------------| 
D|-----------------5-4-3-2---------|-----------------5-4-3-2----|
A|-0-0-0-0-----------------5-4-3-2-|-0-0-0-0--------------------|
D|-0-0-0-0-------------------------|-0-0-0-0-----------------3*-|(End on 3*)
P.M. . . .                           . . . .             (Slight)


0:51  This parts a little off I think.
e|------------------------------------------------------------------|
B|------------------------------------------------------------------|
G|------------------------------------------------10----------------|
D|------------------------------------------------x-----------------|
A|-0-0-10p0-8p0-0-0-0-10p0-8p0-7p0-0-0-10p0-8p0-0-8-0-10p0-8p0-12p0-|
D|-0-0----------0-0-0--------------0-0----------0---0---------------|
P.M. .          .   .              . .          .   . 


0:58
e|-------------------------------|
B|-------------------------------|
G|-10-10-12-12-14-14-17-18-18\\\-|
D|-x--x--x--x--x--x--x--x--x-----|
A|-8--8--10-10-12-12-15-16-16\\\-|
D|-------------------------------|


1:01
e|-------------------------------------------------------------------|
B|-------------------------------------------------------------------|
G|-------------------------------------------------------------------|
D|-0000000000000--1010101010101010--0000000000000000--10101010101010-|
A|-0000000000000--8888888888888888--0000000000000000--88888888888888-|
D|-0000000000000--8888888888888888--0000000000000000--88888888888888-|


Clean - 1:13
e|----------------------------------------------------------------------|
B|----------------------------------------------------------------------|
G|----------------------------------------------------------------------|
D|-141414-121212-1010-999-101010-99-------------------------------------|
A|-121212-101010-8-8--777-8-8-8--77-888-101010-121212-888-101010-121212-|
D|----------------------------------888-101010-121212-888-101010-121212-|
P.M. . .  . . .  . .  ... . . .  .. ... . . .  . . .  ... . . .  . . .


1:52
e|-------------|
B|-------------|
G|-------------|
D|------101010-|
A|-0-0--8-8-8--|
D|-0-0--8-8-8--|
P.M. .


2:12!
e|-------------------------------------------------------------------------|
B|------------------------------11111111-----------------------------11--11|
G|------------------------------14141414-----------------------------14--14|
D|-------------------------------------------------------------------------|
A|-------------------------------------------------------------------------|
D|-00-00-00--00-00-00--00-00-00----------00-00-00--00-00-00--00-00-00--00--|
P.M.. .. ..  .. .. ..  .. .. ..          .. .. ..  .. .. ..  .. .. ..  ..


2:26
e|-----------------------------------------------------------------|
B|-----------------------------------------------------------------|
G|-----------------------------------------------------------------|
D|-----------------------------------------------------------------|
A|-------------------------------------------------------------0-0-|
D|-00-00-00----00-00-00----00-00-00----00-00-00----00-00-00----0-0-|
P.M.. .. ..    .. .. ..    .. .. ..    .. .. ..    .. .. ..    


| /  slide up
| \  slide down
| h  hammer-on
| p  pull-off
| ~  vibrato
| +  harmonic
| x  Mute note
============================================================================
Tap to rate this tab
# A B C D E F G H I J K L M N O P Q R S T U V W X Y Z