Song name
# A B C D E F G H I J K L M N O P Q R S T U V W X Y Z

The Devil Wears Prada - Texas Is South tab

Well once again someone asked me to tab this song so, i said sure! Why not right? But 
ill do the right speaker because its lead and i know you what the lead more then rythem

Tunning - Drop D

RIGHT SPEAKER

Beginning (0:00-0:10)
E|-----------------------------------------------------|
B|-----------------------------------------------------|
G|-----------------------121212121212------------------|
D|--0-0-0--0-0-0--0-0-0--111111111111------------------|x2
A|--0-0-0--0-0-0--0-0-0--101010101010------------------|
D|--0-0-0--0-0-0--0-0-0--------------------------------|
    . . .  . . .  . . .

(0:10-0:22)
E|--------------------------------------------------------|
B|--------------------------------------------------------|
G|---------9/12---------9/12--------9/12--121212121212----|
D|--0-0-0--8/11--0-0-0--8/11--0-0-0-8/11--111111111111----|x2
A|--0-0-0--7/10--0-0-0--7/10--0-0-0-7/10--101010101010----|
D|--0-0-0--------0-0-0--------0-0-0-----------------------|
    . . .        . . .        . . .

Little Thing Right Before The Singing
E|------------------|
B|------------------|
G|------------------|
D|--0-0-0-0-0-0-0---|
A|--0-0-0-0-0-0-0---|
D|--0-0-0-0-0-0-0---|
    . . . . . . .

Chorus Thing (0:23-0:41)
E|---------------------------|
B|---------------------------|
G|--10--9--5-10--9--14-------|
D|---x--x--x--x--x--x--------|x2
A|---8--7--3--8--7--12-------|
D|---------------------------|

Then (0:42-1:00)
E|---------------------------------------------------|
B|---------------------------------------------------|
G|---------------------------------------------------|
D|--0000000-2222222-333333333333--10p7h8p71281087h8--|x2
A|--0000000-2222222-333333333333---------------------|
D|--0000000-2222222-333333333333---------------------|

(1:01-1:09)
E|-----------------------------------------------|
B|-----------------------------------------------|
G|-----------------------------------------------|
D|--0--0-0-0-0-0-0-000--0--0-0-0--12p10p88h10----|x2
A|--0--0-0-0-0-0-0-000--0--0-0-0-----------------|
D|--0--0-0-0-0-0-0-000--0--0-0-0-----------------|
       . . . . . . ...     . . .

(1:10-1:19)
E|-----------------------------------------------|
B|-----------------------------------------------|
G|-----------------------------------------------|
D|--0--0-0-0-0-0-0-000--0--0-0-0--12p10p88h10----|
A|--0--0-0-0-0-0-0-000--0--0-0-0-----------------|
D|--0--0-0-0-0-0-0-000--0--0-0-0-----------------|
       . . . . . . ...     . . .

Continued
E|-----------------------------------------------|
B|-----------------------------------------------|
G|-----------------------------------------------|
D|--0--0-0-0-0-0-0-000--0--0-0-0-----------------|
A|--0--0-0-0-0-0-0-000--0--0-0-0-----------------|
D|--0--0-0-0-0-0-0-000--0--0-0-0-----------------|
       . . . . . . ...     . . .

E|-----------------------------------------------|
B|-----------------------------------------------|
G|-----------------------------------------------|
D|--0--0-0-0-0-0-0-000--0--0-0-0--12p10p88h10----|x2
A|--0--0-0-0-0-0-0-000--0--0-0-0-----------------|
D|--0--0-0-0-0-0-0-000--0--0-0-0-----------------|
       . . . . . . ...     . . .

(1:20-1:34)
E|-----------------------------------------|
B|-----------------------------------------|
G|-----------------------------------------|
D|--0--0-0-0-0-0-0---0-0-0--12p10p88h10----|x2
A|--0--0-0-0-0-0-0---0-0-0-----------------|
D|--0--0-0-0-0-0-0---0-0-0-----------------|
       . . . . . .   . . .

(1:35-1:56)
E|-------------------------------------------------------|
B|-------------------------------------------------------|
G|-------------------------------------------------------|
D|---8888888-7777777--00000-222222-3333333-2222222-------|x2
A|---8888888-7777777--00000-222222-3333333-2222222-------|
D|---8888888-7777777--00000-222222-3333333-2222222-------|

On The 3rd One Do This
E|--------------|
B|--------------|
G|--------------|
D|---8~---10~---|
A|---8~---10~---|
D|---8~---10~---|

(1:57-2:05)
E|----------------------------------------------------|
B|----------------------------------------------------|
G|----------------------------------------------------|
D|--0-0--0--00-0-0-0-0-0-00-0-0--8~--7~---------------|x2
A|--0-0--0--00-0-0-0-0-0-00-0-0--8~--7~---------------|
D|--0-0--0--00-0-0-0-0-0-00-0-0--8~--7~---------------|
      .  .  .. . . . . . .. . .

(2:06-2:22)
But On The Second Keep Going With 0's
E|----------------------------------------|
B|----------------------------------------|
G|----------------------------------------|
D|--0-0--0--00-0-0------------------------|x8
A|--0-0--0--00-0-0------------------------|
D|--0-0--0--00-0-0------------------------|
      .  .  .. . .

(2:23-2:39)
E|------------|
B|------------|
G|------------|
D|----0~------|x1
A|----0~------|
D|----0~------|


(2:40-2:55)
E|------------------------------|
B|------------------------------|
G|------------------------------|
D|--0~----0~----0~----0~--------|x1
A|--0~----0~----0~----0~--------|
D|--0~----0~----0~----0~--------|
    .     .     .     .

Breakdown. (2:56-3:24)
E|----------------------------------------------------------|
B|----------------------------------------------------------|
G|----------------------------------------------------------|
D|--000--8-----000--8--------000--8-----000--8--------------|
A|--000---78~--000---781087--000---78~--000---781087--------|
D|--000--------000-----------000--------000-----------------|
    ...        ...           ...        ...

Continued
E|--------------------------------------------------------------|
B|--------------------------------------------------------------|
G|--------------------------------------------------------------|
D|--888--8-----888--8--------101010--8-----101010---108787------|x2
A|--888---78~--888---781087--101010---78~--101010---------8-----|
D|--888--------888-----------101010--------101010---------------|
    ...        ...            . . .         . . .

(3:26-3:53)
E|----------------------------------------------------------------|
B|----------------------------------------------------------------|
G|----------------------------------------------------------------|
D|---0000000000--88888888888--101010101010101010--88888888888888--|x2
A|---0000000000--88888888888--101010101010101010--88888888888888--|
D|---0000000000--88888888888--101010101010101010--88888888888888--|

(3:54-4:21) CLEAN
E|--------------------------------------------|
B|------6--6---5--5--5---8--8--6--5--5h6------|
G|----77-77-777-77-77-777-77-77-77-77---------|
D|--------------------------------------------|x4
A|--------------------------------------------|
D|--------------------------------------------|

(4:22-4:47)
E|------------------------------------------------------------------------|
B|------------------------------------------------------------------------|
G|------------------------------------------------------------------------|
D|---0000000000--88888888888--1010-1010-1010-1010-101010--88888888888888--|x2
A|---0000000000--88888888888--1010-1010-1010-1010-101010--88888888888888--|
D|---0000000000--88888888888--1010-1010-1010-1010-101010--88888888888888--|


Back To Clean Part (4:48-5:29)
E|--------------------------------------------|
B|------6--6---5--5--5---8--8--6--5--5h6------|
G|----77-77-777-77-77-777-77-77-77-77---------|
D|--------------------------------------------|x5
A|--------------------------------------------|
D|--------------------------------------------|

(5:30-5:43)
E|------------------------------------|
B|------------------------------------|
G|------------------------------------|
D|--0-0-0--0-0-0--0-0-0--0~-----------|x2
A|--0-0-0--0-0-0--0-0-0--0~-----------|
D|--0-0-0--0-0-0--0-0-0--0~-----------|
    . . .  . . .  . . .  .

Beginning All Over Again.. (5:44-5:54)
E|-----------------------------------------------------|
B|-----------------------------------------------------|
G|-----------------------121212121212------------------|
D|--0-0-0--0-0-0--0-0-0--111111111111------------------|x2
A|--0-0-0--0-0-0--0-0-0--101010101010------------------|
D|--0-0-0--0-0-0--0-0-0--------------------------------|
    . . .  . . .  . . .

(5:55-6:08) End
E|--------------------------------------------|
B|------------------------161616161616--------|
G|------------------------151515151515--------|
D|--0-2-3--0-2-3--0-2-3---141414141414--------|x2
A|--0-1-2--0-1-2--0-1-2-----------------------|
D|--0-2-3--0-2-3--0-2-3-----------------------|
    . . .  . . .  . . .


Yah, i was gunna put the left and right speaker but that was gunna take hella days
But here you go
if you got any question message me on mysace
www.myspace.com/codsterrrrr <----- thats my link
Tap to rate this tab
# A B C D E F G H I J K L M N O P Q R S T U V W X Y Z