Song name
# A B C D E F G H I J K L M N O P Q R S T U V W X Y Z

The Devil Wears Prada - And The Sentence Trails Off tab

Help us improve GuitareTab! Take a short survey!
HEY EVERYONE!
UMM WELL I HOPE YOU LIKE THIS TAB IT TOOK ME ABOUT TWO HOURS TO DO IT
BUT THE DEVIL WEARS PRADA IS JUST TO AWESOME.

IF YOU HAVE ANY QUESTIONS MAIL ME AT MY MYSPACE: MYSPACE.COM/PIRATE911

ENJOY!

*ok so alot of you have been saying this song is rosemary had an accident and it is, its 
all this time my itunes had it named and the sentence trails off so sorry about that. 
i cant change the name, it wont let me)


e|-------------------------------------------------------------------------|
B|-------------------------------------------------------------------------|
G|-------------------------------------------------------------------------|
D|-8-P-7--------000-000---8-P-7-------*5----8-P-7------000-000-------------|
A|-8-P-7--[X4]--000-000---8-P-7--[X4]-------8-P-7-[X4]-000-000-------------|
D|-8-P-7--------000-000---8-P-7-------------8-P-7------000-000-------------|
                *** ***                                *** ***
A|----------------||------------------|  |----------------|
B|----------------||------------------|  |----------------|
G|----------------||---------10-878---|  |----------------|
D|-8-P-7-------0~-||877-[X4]----------|  |--877-[X4]-*5---|
A|-8-P-7-[X2]--0~-||------------------|  |----------------|
D|-8-P-7-------0~-||------------------|X3|----------------|

e|-------------------------------------------------------------------------|
B|-------------------------------------------------------------------------|
G|-------------------------------------------------------------------------|
D|-8-P-7--------000-000---8-P-7-------*5----8-P-7------000-000-------------|
A|-8-P-7--[X4]--000-000---8-P-7--[X4]-------8-P-7-[X4]-000-000-------------|
D|-8-P-7--------000-000---8-P-7-------------8-P-7------000-000-------------|
                *** ***                                *** ***

e|--------------|---------------------------|---------------|
B|--------------|---------------------------|---------------|
G|--------------|---------------------------|---------------|
D|-8-P-7------0~|-1-00-1-00-0--000-000------|-1-00-1-00-0~--|
A|-8-P-7-[X2]-0~|-1-00-1-00-0--000-000-[X3]-|-1-00-1-00-0~--|
D|-8-P-7------0~|-1-00-1-00-0--000-000------|-1-00-1-00-0~--|
                    **   ** *  *** ***          **   ** *

   [SLOWER]
e|---------------------------|---------------------|
B|---------------------------|---------------------|
G|---------------------------|---------------------|
D|-1-00-1-00-0--000-000------|-1-00-1-00-0~-000----| [REPEAT ONCE]
A|-1-00-1-00-0--000-000-[X3]-|-1-00-1-00-0~-000----|
D|-1-00-1-00-0--000-000------|-1-00-1-00-0~-000-*3-|
     **   ** *  *** ***          **   ** *  ***

e|-------------------------------------------------------------------------|
B|-------------------------------------------------------------------------|
G|-5~7~999-999-9999--111111-111111--11111111---121212-121212-12121212-11-12|
D|-X~X~XXX-XXX-XXXX--X-X-X--X-X-X---X-X-X-X----X-X-X--X-X-X--X-X-X-X-------|
A|-3~5~777-777-7777--9-9-9--9-9-9---9-9-9-9----101010-101010-10101010------|
D|-------------------------------------------------------------------------|

  [REPEAT ONCE]

  THEN, STRUM THROUGH THESE CHORDS,
LISTEN TO SOMG FOR PRECICE STRUMMING

e|------------|-------------|--------------------|-------------------------|
B|------------|---END-WITH--|--------------------|-------------------------|
G|-9-11-12----|----12~------|----9~--5~--12~--7~-|-9-----5-----12-----7----|
D|-X-X--X-----|----X-~------|----X~--X~--X-~--X~-|-X[X8]-X[X8]-X-[X8]-X[X8]|
A|-7-9--10----|----10~------|----7~--3~--10~--5~-|-7-----3-----10-----5----|
D|------------|-------------|--------------------|-------------------------|

e|------------------------------------|
B|------------------------------------|
G|-9------5------12------7-------12~--|
D|-X[X16]-X[X16]-X-[X16]-X[X16]--X-~--|
A|-7------3------10------5-------10~--|
E|------------------------------------|

e|------------------------------------|  |-------------|  |----------------|
B|------------------------------------|  |-------------|  |----------------|
G|------------------------------------|  |-------------|  |----------------|
D|--0000-00-888/1010--0000-00-8888\77-|  |-8P0-000-8P0-|  |--00000-0~------|
A|--0000-00-888/1010--0000-00-8888\77-|  |-8P0-000-8P0-|  |--00000-0~------|
D|--0000-00-888/1010--0000-00-8888\77-|X2|-8P0-000-8P0-|X4|--00000-0~------|
    **** **           **** **                                ***** *


e|------------------------------------------------|
B|------------------------------------------------|
G|------------------------------------------------|
D|--000-000----00-00---000-000----000-0------1p0--|
A|--000-000-32-00-00---000-000-32-000-0--2H3------|
D|--000-000-32-00-00---000-000-32-000-0-----------|
    *** ***    ** **   *** ***    *** *

e|---------------------------------------|----------------|
B|---------------------------------------|----------------|
G|---------------------------------------|----------------|
D|--000-000----00-00---000-000----000-0--|-000-000-----0~-|
A|--000-000-32-00-00---000-000-32-000-0--|-000-000-32--0~-|
D|--000-000-32-00-00---000-000-32-000-0--|-000-000-32--0~-|
    *** ***    ** **   *** ***    *** *    *** ***     *

e||------------------------------------------|  |--------------------------|
B||------------------------------------------|  |--------------------------|
G||------------------------------------------|  |--------------------------|
D||-000-000----000-0------1p0----000-000-----|  |--000-000----000-0-----1p0|
A||-000-000-32-000-0--2H3--------000-000--32-|  |--000-000-32-000-0-2H3----|
D||-000-000-32-000-0-------------000-000--32-|X3|--000-000-32-000-0--------|
    *** ***    *** *             *** ***           *** ***    *** *

e|------------------------------------------------------|
B|------------------------------------------------------|
G|------------------------------------------------------|
D|-000-000-00-00-000-000-000-000-000-000-00-00-000-000--|
A|-000-000-00-00-000-000-000-000-000-000-00-00-000-000--|
D|-000-000-00-00-000-000-000-000-000-000-00-00-000-000--|
   *** *** ** ** *** *** *** *** *** *** ** ** *** ***

e|-------------------------------------------|--------------------|
B|-------------------------------------------|--------------------|
G|-------------------------------------------|--------------------|
D|-000-000---000-000-------000-000---000-000-|---000-000----------|
A|-000-000---000-000-------000-000---000-000-|---000-000-32~-{X4}-|
D|-000-000---000-000--*3---000-000---000-000-|---000-000-32~------|
   *** ***   *** ***       *** ***   *** ***     *** ***

e|----------0000000-|  |--------||
B|----------0000000-|  |--------||
G|----------0000000-|  |--------||
D|-0~-0~-0~-0000000-|  |---0~---||
A|-0~-0~-0~---------|  |---0~---||
D|-0~-0~-0~---------|X5|---0~---||
   *  *  *                 *

| /  slide up
| \  slide down
| h  hammer-on
| p  pull-off
| ~  vibrato
| +  harmonic
| x  Mute note
============================================================================
Related for And The Sentence Trails Off tab