Song name
# A B C D E F G H I J K L M N O P Q R S T U V W X Y Z

The Devil Wears Prada - Html Rulez D00d tab

Help us improve GuitareTab! Take a short survey!
/ - slide up
\ - slide down
. - palm mute
b - bend string
* - harmonic pitch/screech
~ - let ring

0:00-0:10

e|------------------------------------|--------------------------|
B|------------------------------------|--------------------------|
G|-9-9--9999--99-9/10-7-7--7777-77-777|-9-9--9999-99-999--7-7-7~~|
D|-x-x--xxxx--xx-x/x--x-x--xxxx-xx-xxx|-x-x--xxxx-xx-xxx--x-x-x--|
A|-7-9--7777--77-7/8--5-5--5555-55-555|-7-7--7777-77-777--5-5-5~~|
D|------------------------------------|--------------------------|


0:10-0:20
e|----------------------------|----------|---------------|
B|----------------------------|----------|---------------|
G|---------------------141414-|---141414-|---121212121212|
D|-8888888888888888----x-x-x--|-0-x-x-x--|-0-x-x-x-x-x-x-|
A|-8888888888888888----121212-|-0-121212-|-0-101010101010|
D|-8888888888888888-----------|-0--------|-0-------------|
                            x2         x3

0:20-0:31
e|-----------------------------------|---------|---------------|
B|-----------------------------------|---------|---------------|
G|-----------------------------------|---141414|---121212121212|
D|-3333333333333333-5555555555555555-|-0-x-x-x-|-0-x-x-x-x-x-x-|
A|-3333333333333333-5555555555555555-|-0-121212|-0-101010101010|
D|-3333333333333333-5555555555555555-|-0-------|-0-------------|
                                            x3        

you can figure out the strumming...

0:32-0:36
e|----|
B|----|
G|----|
D|-12-|
A|-12-|  
D|-12-|
             

0:36-0:47                                    
e|----------------------------------|
B|----------------------------------|
G|-7777-7/10\99-7-5-3~3~3/10101010--|
D|-xxxx-x-x--xx-x-x-x-x-x-x-x-x-x---|  x2
A|-5555-5/8 \77-5-3-1~1~1/8-8-8-8---|
D|----------------------------------|
                                               


0:47-0:52
e|----|
B|----|
G|----|
D|-0~-|
A|-0~-|
D|-0~-|


0:53-1:14 
e|------------------------------------|
B|------------------------------------| 
G|------------------------------------|    
D|-12-------10-------8-------12-------|  x2 
A|-12--X16--10--X16--8--X16--12--X16--| 
D|-12-------10-------8-------12-------|


figure out the strumming...

1:14-1:36
e|---|
B|---|
G|---|
D|---| 
A|-0-|
D|-0-|
   .

1:36-1:38
e|---------------------|
B|---------------------|
G|---------------------|
D|---------------------|
A|-0-5-3-0-2-0-3-0-----|
D|-0-5-3-0-2-0-3-0-3b*-|
   . . . . . . . .

1:38-1:52
e|------|
B|------|
G|------|   x4
D|------| 
A|-0-0~-|
D|-0-0~-|
   .

2:08-2:37
e|----------------------------------|
B|----------------------------------|
G|-14-------12-------15-------14----|
D|-x--X16---x--X16---x--X16---x--X16|  x2
A|-12-------10-------13-------12----|
D|----------------------------------|
                                  

2:37-2:42
e|----|
B|----|
G|----|
D|-0~-|
A|-0~-|
D|-0~-|


2:42-3:09                                                   
e|------------------------------------------------------------|
B|------------------------------------------------------------|
G|------------------------------------------------------------|
D|-----10p0-------12p0------5p0-------------10p0--10~10-555---|
A|-0-0-----8p0-0------8p0-0----8p0---0-0-----8p0--10~10-555---|
D|-0-0---------0----------0----------0-0----------10~10-555---|
   . .         .          .          . .                    x5

3:09-3:11
e|-----------------------------|
B|-----------------------------|
G|-----------------------------|
D|-----------------------------|
A|-0~~-------------------------|
D|-0~~-------------------------|
                               

you can figure out the strumming...

3:12-3:25
e|-----------------------------------|
B|-----------------------------------|
G|-----------------------------------|
D|-----------------------------------|
A|-0---------------------------------|
D|-0---------------------------------|
   .

3:26-3:33
e|--------------------------|
B|--------------------------|
G|--------------------------|
D|--------------------------|
A|-2------------------------|
D|-2------------------------|
   .

3:33-3:40
e|------------------------------------|
B|------------------------------------|
G|------------------------------------|
D|------------------------------------|
A|-0----------------------------------|
D|-0----------------------------------|
   .

3:41
e|----|
B|----|
G|----|
D|-0~-|
A|-0~-|
D|-0~-|
Related for Html Rulez D00d tab