Song name
# A B C D E F G H I J K L M N O P Q R S T U V W X Y Z

The Devil Wears Prada - Rosemary Had An Accident tab

                            ROSEMARY HAD AN ACCIDENT      
                      As recorded by The Devil Wears Prada        
              (From the 2005 Album DEAR LOVE: A BEAUTIFUL DISCORD)

Tabbed by: Aaron Stinson
E-mail: stinson.4@hotmail.com

Tuning: Drop D (D A D G B E)

(0:01 - 0:10)
Guitar I
|------------------------------------------------------------|
|------------------------------------------------------------|
|------------------------------------------------------------|
|---------------------------------------------------------9*-|
|-8p7---8p7---8p7---8p7-----------8p7---8p7---8p7---8p7------|
|-8p7-0-8p7-0-8p7-0-8p7-0-000-000-8p7-0-8p7-0-8p7-0-8p7-0----|
PM    .     .     .     . ... ...     .     .     .     .

Guitar II
|------------------------------------------------------------|
|------------------------------------------------------------|
|------------------------------------------------------------|
|------------------------------------------------------------|
|-8p7---8p7---8p7---8p7-----------8p7---8p7---8p7---8p7---0~-|
|-8p7-0-8p7-0-8p7-0-8p7-0-000-000-8p7-0-8p7-0-8p7-0-8p7-0-0~-|
PM    .     .     .     . ... ...     .     .     .     . .

then

Guitars I, II
|------------------------------------------------------------|
|------------------------------------------------------------|
|------------------------------------------------------------|
|------------------------------------------------------------|
|-8p7---8p7---8p7---8p7-----------8p7---8p7---8p7---8p7---0~-|
|-8p7-0-8p7-0-8p7-0-8p7-0-000-000-8p7-0-8p7-0-8p7-0-8p7-0-0~-|
PM    .     .     .     . ... ...     .     .     .     .

(0:11 - 0:20)
Guitar I
|----------------------------------|x4
|----------------------------------|
|-------------------------10-8-7---|
|-8-7-7-8-7-7-8-7-7-8-7-7--------7-|
|----------------------------------|
|----------------------------------|
PM. . . . . . . . . . . .  . . . .

Guitar II (after Guitar I x2)
|----------------------------------|x2
|----------------------------------|
|-8-7-7-8-7-7-8-7-7-8-7-7-10-8-7-7-|
|----------------------------------|
|----------------------------------|
|----------------------------------|
PM. . . . . . . . . . . .  . . . .

Guitar I ends on |----| Guitar II ends on |----|
                 |----|                   |----|
                 |----|                   |-7~-|
                 |-9*-|                   |----|
                 |----|                   |----|
                 |----|                   |----|

(0:21 - 0:30)
Guitar I
|------------------------------------------------------------|
|------------------------------------------------------------|
|------------------------------------------------------------|
|---------------------------------------------------------9*-|
|-8p7---8p7---8p7---8p7-----------8p7---8p7---8p7---8p7------|
|-8p7-0-8p7-0-8p7-0-8p7-0-000-000-8p7-0-8p7-0-8p7-0-8p7-0----|
PM    .     .     .     . ... ...     .     .     .     .

Guitar II
|------------------------------------------------------------|
|------------------------------------------------------------|
|------------------------------------------------------------|
|------------------------------------------------------------|
|-8p7---8p7---8p7---8p7-----------8p7---8p7---8p7---8p7---0~-|
|-8p7-0-8p7-0-8p7-0-8p7-0-000-000-8p7-0-8p7-0-8p7-0-8p7-0-0~-|
PM    .     .     .     . ... ...     .     .     .     . .

then

Guitars I, II
|------------------------------------------------------------|
|------------------------------------------------------------|
|------------------------------------------------------------|
|------------------------------------------------------------|
|-8p7---8p7---8p7---8p7-----------8p7---8p7---8p7---8p7---0~-|
|-8p7-0-8p7-0-8p7-0-8p7-0-000-000-8p7-0-8p7-0-8p7-0-8p7-0-0~-|
PM    .     .     .     . ... ...     .     .     .     .

(0:31 - 0:40)
Guitars I, II
|-------------------------|x4
|-------------------------|
|-------------------------|
|-------------------------|
|-1-0-0-1-0-0-0--000--000-|
|-1-0-0-1-0-0-0--000--000-|
PM  . .   . . .  ...  ...

(0:41 - 1:07)
Guitars I, II
|----------------------------|x4
|----------------------------|
|----------------------------|
|----------------------------|
|-1-0-0-1-0-0-0--000~--000~--|
|-1-0-0-1-0-0-0--000~--000~--|
PM  . .   . . .  ...   ...

Guitar I ends on |--------------|
                 |--------------|
                 |--------------|
                 |--------------|
                 |--------------|
                 |-00-0-0-0-3b*-|
                 PM.. . . .

(1:08 - 1:13)
Guitar I |-----------| Guitar II |-----------|
         |-----------|           |-----------|
         |-----------|           |-5~---7~---|
         |-3~---5~---|           |-x----x----|
         |-3~---5~---|           |-3~---5~---|
         |-3~---5~---|           |-----------|

(1:13 - 1:33)
Guitar I (Guitar II plays a chord behind this, but I can't figure it out.)
|---------------------------------------------------------------------------|
|---------------------------------------------------------------------------|
|-99999-99999-999-1111111111-1111111111-111111-1212121212-1212121212-121212-|
|-xxxxx-xxxxx-xxx--x-x-x-x-x--x-x-x-x-x--x-x-x--x-x-x-x-x--x-x-x-x-x--x-x-x-|
|-77777-77777-777--9-9-9-9-9--9-9-9-9-9--9-9-9-1010101010-1010101010-101010-|
|---------------------------------------------------------------------------|

(contd.)
|-----------------------|x2
|-----------------------|
|-11-11--11/12-12\11-11-|
|--x--x---x-----------x-|
|--9--9---------------9-|
|-----------------------|

(1:34 - 1:53)
Guitars I, II
|--------------------------------------------------|x2
|--------------------------------------------------|
|-9-9-9-9-11-11-11-11-11-12-12-12-12--11-11/12-12\-|
|-x-x-x-x--x--x--x--x--x--x--x--x--x---x-----------|
|-7-7-7-7--9--9--9--9--9-10-10-10-10---------------|
|--------------------------------------------------|

Both guitars end on |------|
                    |------|
                    |-/12~-|
                    |---x--|
                    |-/10~-|
                    |------|

(1:53 - 2:04)
Guitar I
|----------------------|
|----------------------|
|-9~---5~---12~---7~---|
|-x----x-----x----x----|
|-7~---3~---10~---5~---|
|----------------------|

Guitar II
|-------------------------|
|-------------------------|
|-12~----9~---19~---14~---|
|--x-----x-----x-----x----|
|--9~----7~---17~---12~---|
|-------------------------|

(2:05 - 2:13)
Guitar I
|--------------------------------------------------------------|
|--------------------------------------------------------------|
|-9-9-9-9-9-9-9999-5-5-5-5-5-5-5555-12-12-12-12-14-14-12121212-|
|-x-x-x-x-x-x-xxxx-x-x-x-x-x-x-xxxx--x--x--x--x--x--x--x-x-x-x-|
|-7-7-7-7-7-7-7777-3-3-3-3-3-3-3333-10-10-10-10-12-12-10101010-|
|--------------------------------------------------------------|

(contd.)
|---------------------------|
|---------------------------|
|-7--7--7--7--7--7--7-7-7-7-|
|-x--x--x--x--x--x--x-x-x-x-|
|-5--5--5--5--5--5--5-5-5-5-|
|---------------------------|

Guitar II
|--------------------------------------------------------------|
|--------------------------------------------------------------|
|-9-9-9-9-9-9-9999-5-5-5-5-5-5-5555-12-12-12-12-12-12-12121212-|
|-x-x-x-x-x-x-xxxx-x-x-x-x-x-x-xxxx--x--x--x--x--x--x--x-x-x-x-|
|-7-7-7-7-7-7-7777-3-3-3-3-3-3-3333-10-10-10-10-10-10-10101010-|
|--------------------------------------------------------------|

(contd.)
|----------------------------|
|----------------------------|
|--7--7--7--7--7--7--7-7-7-7-|
|--x--x--x--x--x--x--x-x-x-x-|
|--5--5--5--5--5--5--5-5-5-5-|
|----------------------------|

(2:14 - 2:24)
Guitar I
|---------------------------------------------------------------------|
|---------------------------------------------------------------------|
|---------------------------------------------------------------------|
|-----5-----5-----5-----5-----5\-----2-----2-----2-----2-----2-----2\-|
|-7-7---7-7---7-7---7-7---7-7----3-3---3-3---3-3---3-3---3-3---3-3----|
|---------------------------------------------------------------------|

(contd.)
|---------------------------------------------------------------|
|---------------------------------------------------------------|
|-----7-----7-----7-----7-----7\--------------------------------|
|-5-5---5-5---5-5---5-5---5-5--------7-----7-----7-----7-----7\-|
|--------------------------------5-5---5-5---5-5---5-5---5-5----|
|---------------------------------------------------------------|

Guitar II
|--------------------------------------------------------------|
|--------------------------------------------------------------|
|-9-9-9-9-9-9-9999-5-5-5-5-5-5-5555-12-12-12-12-14-14-12121212-|
|-x-x-x-x-x-x-xxxx-x-x-x-x-x-x-xxxx--x--x--x--x--x--x--x-x-x-x-|
|-7-7-7-7-7-7-7777-3-3-3-3-3-3-3333-10-10-10-10-12-12-10101010-|
|--------------------------------------------------------------|

(contd.)
|----------------------------|
|----------------------------|
|--7--7--7--7--7--7--7-7-7-7-|
|--x--x--x--x--x--x--x-x-x-x-|
|--5--5--5--5--5--5--5-5-5-5-|
|----------------------------|


Both guitars end on |----------|
                    |----------|
                    |-/12~~----|
                    |---x------|
                    |-/10~~----|
                    |----------|

(2:31 - 2:41)
Guitars I, II
|-------------------------------------------------------------|x2
|-------------------------------------------------------------|
|-------------------------------------------------------------|
|-------------------------------------------------------------|
|-0-0-0-0--0-0-0-8-8-8-8/10-10--0-0-0-0-0--0-0-0-8-8-8-8\7-7--|
|-0-0-0-0--0-0-0-8-8-8-8/10-10--0-0-0-0-0--0-0-0-8-8-8-8\7-7--|
PM. . . .  . . .                . . . . .  . . .

(2:42 - 2:51)
Guitars I, II 
|-----------------------------------|x2
|-----------------------------------|
|-----------------------------------|
|-----------------------------------|
|-8p0-0-0-0--0-0---8p0-0-0-0--0-0---|
|-8p0-0-0-0--0-0---8p0-0-0-0--0-0---|

(2:52 - 3:09)
Guitars I, II
|---------------------|
|---------------------|
|---------------------|
|---------------------|
|-0x-0x-0x-0-0x-0~~~--|
|-0x-0x-0x-0-0x-0~~~--|

(3:10 - 3:23)
Guitars I, II
|------------------------------------------------------|
|------------------------------------------------------|
|--------------------------------------------------1p0-|
|----------------------------------------------1h2-----|
|---------5-4---0-0--0-0----------5-4------------------|
|-000-000-3-2---0-0--0-0--000-000-3-2---00-0-0---------|
PM... ...       . .  . .  ... ...       .. . .

(contd.)
|-----------------------------------------|
|-----------------------------------------|
|-----------------------------------------|
|-----------------------------------------|
|---------5-4---0-0--0-0----------5-4---0-|
|-000-000-3-2---0-0--0-0--000-000-3-2---0-|
PM... ...       . .  . .  ... ...       .

(3:24 - 3:50)
Guitars I, II
|------------------------------------------------|
|------------------------------------------------|
|--------------------------------------------1p0-|
|----------------------------------------1h2-----|
|---------5-4---0~----------5-4------------------|
|-000-000-3-2---1~--000-000-3-2---00-0-0---------|
PM... ...           ... ...       .. . .

(cont.)
|----------------------------------------------|x3
|----------------------------------------------|
|------------------------------------------1p0-|
|--------------------------------------1h2-----|
|---------5-4-------------5-4------------------|
|-000-000-3-2-----000-000-3-2---00-0-0---------|
PM... ...         ... ...       .. . .

(3:51 - 3:57)
Guitars I, II
|-----------------------|x2
|-----------------------|
|-----------------------|
|-----------------------|
|-000-00-000-000-000-00-|
|-000-00-000-000-000-00-|
PM... .. ... ... ... ..

(3:58 - 4:11)
Guitar I
|--------------------------------------------------|
|--------------------------------------------------|
|--------------------------------------------------|
|--------------------------------------------------|
|-000-000----000-000---------000-000----000-000----|
|-000-000----000-000---3b*---000-000----000-000----|
PM... ...    ... ...         ... ...    ... ...

Guitar II (doesn't play harmonic bend)
|--------------------------------------------------|
|--------------------------------------------------|
|--------------------------------------------------|
|--------------------------------------------------|
|-000-000----000-000---------000-000----000-000----|
|-000-000----000-000---------000-000----000-000----|
PM... ...    ... ...         ... ...    ... ...

(4:12 - 4:26)
Guitars I, II
|------------------------------------------------------------------|
|------------------------------------------------------------------|
|------------------------------------------------------------------|
|------------------------------------------------------------------|
|------------------------------------------------------------------|
|---------5-4~-----------5-4~-----------5-4~---0~-----------5-4~---|
|-000-000-3-2~---000-000-3-2~---000-000-3-2~---1~---000-000-3-2~---|

(4:27 - 5:11)
Guitars I, II
|-------------0-0-0-<7>----------------0--<7>--|
|-------------0-0-0-<7>----------------0--<7>--|
|-------------0-0-0--0-----------------0---0---|
|-------------0-0-0--0-----------------0---0---|
|-0~--0~--0~--------------0~--0~--0~-----------|
|-1~--1~--1~--------------1~--1~--1~-----------|
PM.   .   .               .   .   .
                                
(contd.)                          
|-------------0-0-0-<7>---------------0-0-0-<7>--|
|-------------0-0-0-<7>---------------0-0-0-<7>--|
|-------------0-0-0--0----------------0-0-0--0---|
|-------------0-0-0--0----------------0-0-0--0---|
|-0~--0~--0~--------------0~--0~--0~-------------|
|-1~--1~--1~--------------1~--1~--1~-------------|
  .   .   .               .   .   .

Both guitars end on |---------|
                    |---------|
                    |---------|
                    |---------|
                    |-0~~~~---|
                    |-1~~~~---|
                      .

That's it. I know it's a little confusing, but it's also 100% correct!
Rate/comment please! 
Enjoy!

LEGEND
----------
PM . = palm mute
x    = stop strings
<7>  = natural harmonic
3*   = pinch harmonic
b    = bend
3b*  = pinch harmonic bend
h    = hammer-on
p    = pull-off 
Tap to rate this tab
# A B C D E F G H I J K L M N O P Q R S T U V W X Y Z