Song name
# A B C D E F G H I J K L M N O P Q R S T U V W X Y Z

The Devil Wears Prada - Modeify The Prenounciation tab

Tuning - Drop D


(0:00-0:13)
E|----------------------------------------------------|
B|----------------------------------------------------|
G|----------------------------------------------------|
D|--00000--0~---00000--0~---00000--0~---00000--0~-----|
A|--00000--0~---00000--0~---00000--0~---00000--0~-----|
D|--00000--0~---00000--0~---00000--0~---00000--0~-----|
    .....       .....       .....       .....
(0:14-0:27)
E|------------------------------------------------------------|
B|------------------------------------------------------------|
G|------------------------------------------------------------|
D|--0-4313-4313--0-4313-4313-----0-4313-4313--0-4313-4313--0--|
A|--0-4313-4313--0-4313-4313-----0-4313-4313--0-4313-4313--0--|
D|--0-4313-4313--0-4313-4313--3^-0-4313-4313--0-4313-4313--0--|
    . .... ....  . .... ....     . .... ....  . .... ....

(0:28-0:32)
E|--------------------------------------------------|
B|--------------------------------------------------|
G|----------------------------------5h7-3h5-2~------|
D|--------------------------------------------------|x1
A|---8-10-7-8-10-7-8-10-8-10-7-8--------------------|
D|----0--0-0-0--0-0-0--0-0--0-0---------------------|

(0:33-0:42)
E|-------------------------------------------------------|
B|-------------------------------------------------------|
G|-------------------------------------------------------|
D|-----------------------------------------------8-7~----|
A|---8-10-7-8-10-7-8-10-----------------8-10-7-8---------|
D|----0--0-0-0--0-0-0--0---x3---Then..---0--0-0----------|

fast..(0:43-0:51)
E|----------------------------------------------------------------------|
B|----------------------------------------------------------------------|
G|----------------------------------------------------------------------|
D|-----------------------------------------------------------------8-7~-|
A|---8x4-10x4-7x4-8x4-10x4-7x4-8x4-10x4----x3------8x4-10x4-7x4-8x4-----|
D|------------------------------------------Then..----------------------|

(0:52-1:04)
E|--------------------------------------|
B|--------------------------------------|
G|--------------------------------------|
D|--0-4-3-1--000-444-333-1--------------|x4
A|--0-4-3-1--000-444-333-1--------------|
D|--0-4-3-1--000-444-333-1--------------|
    . . .    ... ... ...

(1:05-1:11)
E|------------------------------|
B|------------------------------|
G|------------------------------|
D|-000-000-00-00-0-0-0-0-0-0----|x2
A|-000-000-00-00-0-0-0-0-0-0----|
D|-000-000-00-00-0-0-0-0-0-0----|
   ... ... .. .. . . . . . .

..Bass slide up

BREAKDOWN(1:12-1:24)
E|--------------------------------------|
B|----------12--------------------------|
G|----------15-------5-2-3--------------|
D|--000-000---00-00--5-2-3--OR--10-7-8--|
A|--000-000---00-00--3-0-1------10-7-8--|
D|--000-000---00-00-------------10-7-8--|
    ... ...   .. ..

(1:26-1:40)
E|------------------------------------------------------------------------|
B|------------------------------------------------------------------------|
G|------------------------------------------------------------------------|
D|-10-7-8-000-000-10-7-8-00-10-7-8-00--000-000-10-7-8---101010-999-101010-|
A|-10-7-8-000-000-10-7-8-00-10-7-8-00--000-000-10-7-8x2-101010-999-101010-|
D|-10-7-8-000-000-10-7-8-00-10-7-8-00--000-000-10-7-8---101010-999-101010-|

(1:41 to 2:15)
E|------------------------------------------------------------------|
B|------------------------------------------------------------------|
G|------------------------------------------------------------------|
D|-000-000-1010-000-000-99-000-000-1010-000-000---------------------|
A|-000-000-1010-000-000-99-000-000-1010-000-000-------9b------------|
D|-000-000-1010-000-000-99-000-000-1010-000-000-9p8p0---------------|

E|------------------------------------------------------------------|
B|------------------------------------------------------------------|
G|------------------------------------------------------------------|
D|-000-000-1010-000-000-99-000-000-1010-000-000---------------------|
A|-000-000-1010-000-000-99-000-000-1010-000-000---------------------|
D|-000-000-1010-000-000-99-000-000-1010-000-000-9p8p0-7-------------|

E|------------------------------------------------------------------|
B|------------------------------------------------------------------|
G|------------------------------------------------------------------|
D|-----------1010-----------99-----------1010-----------------------|
A|-----------1010-----------99-----------1010-----------------9b----|
D|-9p8p0-7p0-1010-9p8p0-7p0-99-9p7p0-7p0-1010-9p8p0-7p0-9p8p0-------|

E|------------------------------------------------------------------|
B|------------------------------------------------------------------|
G|------------------------------------------------------------------|
D|-----------1010-----------99-----------1010-----------------------|
A|-----------1010-----------99-----------1010-----------------9b----|
D|-9p8p0-7p0-1010-9p8p0-7p0-99-9p7p0-7p0-1010-9p8p0-7p0-9p8p0-------|

E|------------------------------------------------------------------|
B|------------------------------------------------------------------|
G|------------------------------------------------------------------|
D|-000-000-1010-000-000-99-000-000-1010-000-000---------------------|
A|-000-000-1010-000-000-99-000-000-1010-000-000-------9b------------|
D|-000-000-1010-000-000-99-000-000-1010-000-000-9p8p0---------------|

E|------------------------------------------------------------------|
B|------------------------------------------------------------------|
G|------------------------------------------------------------------|
D|---------1010---------99---------1010-----------------------------|
A|---------1010---------99---------1010---------------9b------------|
D|-9-8-7-0-1010-9-8-7-0-99-9-8-7-0-1010-9-8-7-0-9p8p0---------------|

(2:17...)
E|-----|
B|-----|
G|-----|
D|-0~--|
A|-0~--|
D|-0~--|

outro(2:33-4:19)
E|------------|
B|------------|
G|------------|
D|---8-7------|x6
A|-------8-5--|
D|------------|

E|--------------------|
B|--------------------|
G|----------------7---|
D|---87-----87--------|
A|-----8585---85h8----|
D|--------------------|

(4:20)
E|------|
B|------|
G|------|
D|--0~--|
A|--0~--|
D|--0~--|


Lyrics...
now that it's here, it's too late. the whole wide world, is fearing the wrong things.
down a cold staircase. and persistently i darken my shadow to cover up regret but the
tracks still lie straight. it'll be the end of deception. vertical to the horizon. it'll
the end of deception. this is the gun to the manipulation. bring the end [ow!]
is falling [yeah] denial; a repetitive trait. repetition. the walls. betrayal; a
trait. i thought this died so long ago, but reoccuring shame eats at me. she eats at me. she
away. i'm here for forgiveness one more time. i'm slurring a compilation of words. I 
for your forgiveness, one more time. i plea for this [one more time] i'm asking for
forgiveness, God. lay her to rest.
Tap to rate this tab
# A B C D E F G H I J K L M N O P Q R S T U V W X Y Z