Song name
# A B C D E F G H I J K L M N O P Q R S T U V W X Y Z

The Devil Wears Prada - Hey John Whats Your Name Again tab

||-----------------------------------------------------------------------------------||
|| Song:                    Hey John, Whats Your Name Again                          ||
|| Artist:                       The Devil Wears Prada                               ||
|| Tuning:                            D,A,D,G,B,e                                    ||
||-----------------------------------------------------------------------------------||

 [Intro: x1]
| Gtr I & II
||--------------------|--------------------|--------------------|--------------------||
||--------------------|--------------------|--------------------|--------------------||
||--------------------|--------------------|--------------------|--------------------||
||--0~----------------|--L-----------------|--8~----------------|--5~----------------||
||--0~----------------|--L-----------------|--8~----------------|--5~----------------||
||--0~----------------|--L-----------------|--8~----------------|--5~----------------||


| Gtr I
||--------------------|--------------------|--------------------|--------------------||
||--------------------|--------------------|--------------------|--------------------||
||--------------------|--------------------|--------------------|--------------------||
||--0~----------------|--L-----------------|--8~----------------|--------------------||
||--0~----------------|--L-----------------|--8~----------------|--\\\\\\\\\\\\\\\\--||
||--0~----------------|--L-----------------|--8~----------------|--\\\\\\\\\\\\\\\\--||
|
| Gtr II
| Gtr I
||--------------------|--------------------|--------------------|--------------------||
||--------------------|--------------------|--------------------|--------------------||
||--------------------|--------------------|--------------------|--------------------||
||--0~----------------|--L-----------------|-10~----------------|-10~----------------||
||--0~----------------|--L-----------------|--8~----------------|--8~----------------||
||--0~----------------|--L-----------------|--8~----------------|--8~----------------||



 [Verse: x2]
| Gtr I
||--------------------|--------------------|--------------------|--------------------||
||--------------------|--------------------|--------------------|--------------------||
||--------------------|--------------------|--------------------|--------------------||
||--------------------|--------------------|--------------------|--8-7-5-0-5-7-5-0---||
||--8----10----12s7---|--7-----8----10s7---|--8----10----12s7---|--------------------||
||----000---000-------|----000---000-------|----000---000-------|--------------------||
|     ...   ...            ...   ...            ...   ...
| Gtr II
||--------------------|--------------------|--------------------|--------------------||
||--------------------|--------------------|--------------------|--------------------||
||--------------------|--------------------|--------------------|--------------------||
||--------------------|--------------------|--------------------|--8-7-5-0-2-3-5-2---||
||--5-----7-----8s4---|--4-----5-----7s4---|--5-----7-----8s4---|--------------------||
||----000---000-------|----000---000-------|----000---000-------|--------------------||
|     ...   ...            ...   ...            ...   ...



 [Pre-Chorus: x1]
| Gtr I
||--------------------|--------------------|--------------------|--------------------||
||-1010101010101010---|-1010101010101010---|-1010101010101010---|-1010101010101010---||
||--x-x-x-x-x-x-x-x---|--x-x-x-x-x-x-x-x---|--x-x-x-x-x-x-x-x---|--x-x-x-x-x-x-x-x---||
||--8-8-8-8-8-8-8-8---|--8-8-8-8-8-8-8-8---|--8-8-8-8-8-8-8-8---|--8-8-8-8-8-8-8-8---||
||--------------------|--------------------|--------------------|--------------------||
||--------------------|--------------------|--------------------|--------------------||
|
| Gtr II
||--------------------|--------------------|--------------------|--------------------||
||--------------------|--------------------|--------------------|--------------------||
||-1010101010101010---|-1010101010101010---|-1212121212121212---|-1212121212121212---||
||--x-x-x-x-x-x-x-x---|--x-x-x-x-x-x-x-x---|--x-x-x-x-x-x-x-x---|--x-x-x-x-x-x-x-x---||
||--8-8-8-8-8-8-8-8---|--8-8-8-8-8-8-8-8---|-1010101010101010---|-1010101010101010---||
||--------------------|--------------------|--------------------|--------------------||


| Gtr I
||--------------------|--------------------|--------------------|--------------------||
||-1010101010101010---|-1010101010101010---|--------------------|--------------------||
||--x-x-x-x-x-x-x-x---|--x-x-x-x-x-x-x-x---|--------------------|--------------------||
||--8-8-8-8-8-8-8-8---|--8-8-8-8-8-8-8-8---|--------------------|--0~----------------||
||--------------------|--------------------|--0-------0--0--0---|--0~----------------||
||--------------------|--------------------|--0-------0--0--0---|--0~----------------||
|                                             .       .  .  .
| Gtr II
||--------------------|--------------------|--------------------|--------------------||
||--------------------|--------------------|--------------------|--------------------||
||--9-9-9-9-9-9-9-9---|--9-9-9-9-9-9-9-9---|--------------------|--------------------||
||--x-x-x-x-x-x-x-x---|--x-x-x-x-x-x-x-x---|--------------------|--0~----------------||
||--7-7-7-7-7-7-7-7---|--7-7-7-7-7-7-7-7---|--0-------0--0--0---|--0~----------------||
||--------------------|--------------------|--0-------0--0--0---|--0~----------------||
|                                             .       .  .  .



 [Chorus: x1]
| Gtr I
||--------------------|--------------------|--------------------|--------------------||
||--------------------|--------------------|--------------------|--------------------||
||--------------------|--------------------|--------------------|--------------------||
||--8-8-8-8-8-8-8-8---|--8-8-8-8-8-8-8-8---|-1010101010101010---|-1010101010101010---||
||--8-8-8-8-8-8-8-8---|--8-8-8-8-8-8-8-8---|-1010101010101010---|-1010101010101010---||
||--8-8-8-8-8-8-8-8---|--8-8-8-8-8-8-8-8---|-1010101010101010---|-1010101010101010---||
|
| Gtr II
||--------------------|--------------------|--------------------|--------------------||
||--------------------|--------------------|--------------------|--------------------||
||-1010101010101010---|-1010101010101010---|--9-9-9-9-9-9-9-9---|--9-9-9-9-9-9-9-9---||
||--x-x-x-x-x-x-x-x---|--x-x-x-x-x-x-x-x---|--x-x-x-x-x-x-x-x---|--x-x-x-x-x-x-x-x---||
||--8-8-8-8-8-8-8-8---|--8-8-8-8-8-8-8-8---|--7-7-7-7-7-7-7-7---|--7-7-7-7-7-7-7-7---||
||--------------------|--------------------|--------------------|--------------------||


| Gtr I
||--------------------|--------------------|--------------------|--------------------||
||--------------------|--------------------|--------------------|--------------------||
||--------------------|--------------------|--------------------|--------------------||
||--5-5-5-5-5-5-5-5---|--5-5-5-5-5-5-5-5---|--5-5-5-5-5-5-5-5---|--5-5-5-5-5-5-5-5---||
||--5-5-5-5-5-5-5-5---|--5-5-5-5-5-5-5-5---|--5-5-5-5-5-5-5-5---|--5-5-5-5-5-5-5-5---||
||--5-5-5-5-5-5-5-5---|--5-5-5-5-5-5-5-5---|--5-5-5-5-5-5-5-5---|--5-5-5-5-5-5-5-5---||
|
| Gtr II
||--------------------|--------------------|--------------------|--------------------||
||--------------------|--------------------|--------------------|--------------------||
||--5-5-5-5-5-5-5-5---|--5-5-5-5-5-5-5-5---|--5-5-5-5-5-5-5-5---|--3-3-3-3-2-2-2-2---||
||--x-x-x-x-x-x-x-x---|--x-x-x-x-x-x-x-x---|--x-x-x-x-x-x-x-x---|--x-x-x-x-x-x-x-x---||
||--3-3-3-3-3-3-3-3---|--3-3-3-3-3-3-3-3---|--3-3-3-3-3-3-3-3---|--1-1-1-1-1-1-1-1---||
||--------------------|--------------------|--------------------|--------------------||


| Gtr I
||--------------------|--------------------|--------------------|--------------------||
||--------------------|--------------------|--------------------|--------------------||
||--------------------|--------------------|--------------------|--------------------||
||--8-8-8-8-8-8-8-8---|--8-8-8-8-8-8-8-8---|-1010101010101010---|-1010101010101010---||
||--8-8-8-8-8-8-8-8---|--8-8-8-8-8-8-8-8---|-1010101010101010---|-1010101010101010---||
||--8-8-8-8-8-8-8-8---|--8-8-8-8-8-8-8-8---|-1010101010101010---|-1010101010101010---||
|
| Gtr II
||--------------------|--------------------|--------------------|--------------------||
||--------------------|--------------------|--------------------|--------------------||
||--7-7-7-7-7-7-7-7---|--7-7-7-7-7-7-7-7---|--5-5-5-5-5-5-5-5---|--5-5-5-5-5-5-5-5---||
||--x-x-x-x-x-x-x-x---|--x-x-x-x-x-x-x-x---|--x-x-x-x-x-x-x-x---|--x-x-x-x-x-x-x-x---||
||--5-5-5-5-5-5-5-5---|--5-5-5-5-5-5-5-5---|--3-3-3-3-3-3-3-3---|--3-3-3-3-3-3-3-3---||
||--------------------|--------------------|--------------------|--------------------||


| Gtr I
||--------------------|--------------------|--------------------|--------------------||
||--------------------|--------------------|--------------------|--------------------||
||--------------------|--------------------|--------------------|--------------------||
||--5-5-5-5-5-5-5-5---|--5-5-5-5-5-5-5-5---|--------------------|--0~----------------||
||--5-5-5-5-5-5-5-5---|--5-5-5-5-5-5-5-5---|--0-------0--0--0---|--0~----------------||
||--5-5-5-5-5-5-5-5---|--5-5-5-5-5-5-5-5---|--0-------0--0--0---|--0~----------------||
|                                             .       .  .  .
| Gtr II
||--------------------|--------------------|--------------------|--------------------||
||-1010101010101010---|-1010101010101010---|--------------------|--------------------||
||--x-x-x-x-x-x-x-x---|--x-x-x-x-x-x-x-x---|--------------------|--------------------||
||--7-7-7-7-7-7-7-7---|--7-7-7-7-7-7-7-7---|--------------------|--0~----------------||
||--------------------|--------------------|--0-------0--0--0---|--0~----------------||
||--------------------|--------------------|--0-------0--0--0---|--0~----------------||
|                                             .       .  .  .                          



 [Breakdown I: x2]
| Gtr I & II
||--------------------|--------------------|--------------------|--------------------||
||--------------------|--------------------|--------------------|--------------------||
||--------------------|--------------------|--------------------|--8-8-8-8-7-7-7-7---||
||--------8v~---0~----|-------------s0-----|--------8v~---0~----|--x-x-x-x-x-x-x-x---||
||--0-----------0~----|--8---0-7v~--s0-----|--0-----------0~----|--6-6-6-6-5-5-5-5---||
||--0---0-------0~----|--8---0-7v~--s0-----|--0---0-------0~----|--------------------||
|   .   .                                     .   .


| Gtr I
||--------------------|--------------------|--------------------|--------------------||
||--------------------|--------------------|--------------------|--------------------||
||--------------------|--------------------|--------------------|--8-8-8-8-7-7-7-7---||
||--------8v~---0~----|-------------s0-----|--------8v~---0~----|--x-x-x-x-x-x-x-x---||
||--0-----------0~----|--8---0-7v~--s0-----|--0-----------0~----|--6-6-6-6-5-5-5-5---||
||--0---0-------0~----|--8---0-7v~--s0-----|--0---0-------0~----|--------------------||
|   .   .                                     .   .
| Gtr II
||--------------------|--------------------|--------------------|--------------------||
||--------------------|--------------------|--------------------|--------------------||
||--------------------|--------------------|--------------------|-1212121111111111---||
||--------8v~---0~----|-------------s0-----|--------8v~---0~----|--x-x-x-x-x-x-x-x---||
||--0-----------0~----|--8---0-7v~--s0-----|--0-----------0~----|-101010-9-9-9-9-9---||
||--0---0-------0~----|--8---0-7v~--s0-----|--0---0-------0~----|--------------------||
|   .   .                                     .   .



 [Transition-Interlude: x1]
| Gtr I
||--------------------|--------------------|--------------------|--------------------||
||-1010101010101010---|-1010101010101010---|-1010101010101010---|-1010101010101010---||
||--x-x-x-x-x-x-x-x---|--x-x-x-x-x-x-x-x---|--x-x-x-x-x-x-x-x---|--x-x-x-x-x-x-x-x---||
||--8-8-8-8-8-8-8-8---|--8-8-8-8-8-8-8-8---|--8-8-8-8-8-8-8-8---|--8-8-8-8-8-8-8-8---||
||--------------------|--------------------|--------------------|--------------------||
||--------------------|--------------------|--------------------|--------------------||


| Gtr I
||--------------------|--------------------|--------------------|--------------------||
||-1010101010101010---|-1010101010101010---|-1010101010101010---|-1010101010101010---||
||--x-x-x-x-x-x-x-x---|--x-x-x-x-x-x-x-x---|--x-x-x-x-x-x-x-x---|--x-x-x-x-x-x-x-x---||
||--8-8-8-8-8-8-8-8---|--8-8-8-8-8-8-8-8---|--8-8-8-8-8-8-8-8---|--8-8-8-8-8-8-8-8---||
||--------------------|--------------------|--------------------|--------------------||
||--------------------|--------------------|--------------------|--------------------||
|
| Gtr II
||--------------------|--------------------|--0~----------------|--L-----------------||
||--------------------|--------------------|--0~----------------|--L-----------------||
||--------------------|--------------------|--0~----------------|--L-----------------||
||--0~----------------|--L-----------------|--------------------|--------------------||
||--0~----------------|--L-----------------|--------------------|--------------------||
||--0~----------------|--L-----------------|--------------------|--------------------||



 [Interlude I: x2]
| Gtr I & II
||--------------------|--------------------|--------------------|--------------------||
||--------------------|--------------------|--------------------|--------------------||
||--------------------|--------------------|--------------------|--------------------||
||--------------------|--------------------|--------------------|--------------------||
||--0~------------0---|--0~----------------|--0~------------0---|--000-000-000-000---||
||--0~------------0---|--0~----------------|--0~------------0---|--000-000-000-000---||
|   .             .      .                    .             .      ... ... ... ...



 [Interlude II: x2]
| Gtr I & II
||--------------------|--------------------|--------------------|--------------------||
||--------------------|--------------------|--------------------|--------------------||
||--------------------|--------------------|--------------------|--------------------||
||--------------------|--------------------|--------------------|--------------------||
||--000-000------00---|--000-000-000-000---|--000-000------00---|--000-000-000-000---||
||--000-000------00---|--000-000-000-000---|--000-000------00---|--000-000-000-000---||
|   ... ...      ..      ... ... ... ...      ... ...      ..      ... ... ... ...



 [Interlude III: x1]
| Gtr I
||--------------------|--------------------|--------------------|--------------------||
||--------------------|--------------------|--------------------|--------------------||
||--------------------|--------------------|--------------------|--------------------||
||--------------------|--------------------|--------------------|--------------------||
||--000-000------00---|--000-000-000-000---|--000-000------00---|--000-000-000-000---||
||--000-000------00---|--000-000-000-000---|--000-000------00---|--000-000-000-000---||
|   ... ...      ..      ... ... ... ...      ... ...      ..      ... ... ... ...
| Gtr II
||--------------------|--------------------|--------------------|--------------------||
||--------------------|--------------------|--------------------|--------------------||
||--7-7-7-7-7-7-7-7---|--7-7-7-7-7-7-7-7---|--9-9-9-9-9-9-9-9---|--9-9-9-9-9-9-9-9---||
||--x-x-x-x-x-x-x-x---|--x-x-x-x-x-x-x-x---|--x-x-x-x-x-x-x-x---|--x-x-x-x-x-x-x-x---||
||--5-5-5-5-5-5-5-5---|--5-5-5-5-5-5-5-5---|--7-7-7-7-7-7-7-7---|--7-7-7-7-7-7-7-7---||
||--------------------|--------------------|--------------------|--------------------||


| Gtr I
||--------------------|--------------------|--------------------|--------------------||
||--------------------|--------------------|--------------------|--------------------||
||--------------------|--------------------|--------------------|--------------------||
||--------------------|--------------------|--------------------|--------------------||
||--000-000------00---|--000-000-000-000---|--000-000------00---|--000-000-000-000---||
||--000-000------00---|--000-000-000-000---|--000-000------00---|--000-000-000-000---||
|   ... ...      ..      ... ... ... ...      ... ...      ..      ... ... ... ...
| Gtr II
||--------------------|--------------------|--------------------|--------------------||
||--------------------|--------------------|--------------------|--------------------||
||-1212121212121212---|-1212121212121212---|-1515151515151515---|-1515151515151515---||
||--x-x-x-x-x-x-x-x---|--x-x-x-x-x-x-x-x---|--x-x-x-x-x-x-x-x---|--x-x-x-x-x-x-x-x---||
||-1010101010101010---|-1010101010101010---|-1313131313131313---|-1313131313131313---||
||--------------------|--------------------|--------------------|--------------------||



 [Chorus II: x1]
| Gtr I
||--------------------|--------------------|--------------------|--------------------||
||--------------------|--------------------|--------------------|--------------------||
||--------------------|--------------------|--------------------|--------------------||
||--8~----------------|--L-----------------|-10~----------------|--L-----------------||
||--8~----------------|--L-----------------|-10~----------------|--L-----------------||
||--8~----------------|--L-----------------|-10~----------------|--L-----------------||
|
| Gtr II
||--------------------|--------------------|--------------------|--------------------||
||--------------------|--------------------|--------------------|--------------------||
||-1010101010101010---|-1010101010101010---|--9-9-9-9-9-9-9-9---|--9-9-9-9-9-9-9-9---||
||--x-x-x-x-x-x-x-x---|--x-x-x-x-x-x-x-x---|--x-x-x-x-x-x-x-x---|--x-x-x-x-x-x-x-x---||
||--8-8-8-8-8-8-8-8---|--8-8-8-8-8-8-8-8---|--7-7-7-7-7-7-7-7---|--7-7-7-7-7-7-7-7---||
||--------------------|--------------------|--------------------|--------------------||


| Gtr I
||--------------------|--------------------|--------------------|--------------------||
||--------------------|--------------------|--------------------|--------------------||
||--------------------|--------------------|--------------------|--------------------||
||--5~----------------|--L-----------------|--5~----------------|--L-----------------||
||--5~----------------|--L-----------------|--5~----------------|--L-----------------||
||--5~----------------|--L-----------------|--5~----------------|--L-----------------||
|
| Gtr II
||--------------------|--------------------|--------------------|--------------------||
||--------------------|--------------------|--------------------|--------------------||
||--5-5-5-5-5-5-5-5---|--5-5-5-5-5-5-5-5---|--5-5-5-5-5-5-5-5---|--3-3-3-3-2-2-2-2---||
||--x-x-x-x-x-x-x-x---|--x-x-x-x-x-x-x-x---|--x-x-x-x-x-x-x-x---|--x-x-x-x-x-x-x-x---||
||--3-3-3-3-3-3-3-3---|--3-3-3-3-3-3-3-3---|--3-3-3-3-3-3-3-3---|--1-1-1-1-0-0-0-0---||
||--------------------|--------------------|--------------------|--------------------||


| Gtr I
||--------------------|--------------------|--------------------|--------------------||
||--------------------|--------------------|--------------------|--------------------||
||--------------------|--------------------|--------------------|--------------------||
||--8-8-8-8-8-8-8-8---|--8-8-8-8-8-8-8-8---|-1010101010101010---|-1010101010101010---||
||--8-8-8-8-8-8-8-8---|--8-8-8-8-8-8-8-8---|-1010101010101010---|-1010101010101010---||
||--8-8-8-8-8-8-8-8---|--8-8-8-8-8-8-8-8---|-1010101010101010---|-1010101010101010---||
|
| Gtr II
||--------------------|--------------------|--------------------|--------------------||
||--------------------|--------------------|--------------------|--------------------||
||-1010101010101010---|-1212121214141414---|--9-9-9-9-9-9-9-9---|-1010101012121212---||
||--x-x-x-x-x-x-x-x---|--x-x-x-x-x-x-x-x---|--x-x-x-x-x-x-x-x---|--x-x-x-x-x-x-x-x---||
||--8-8-8-8-8-8-8-8---|-1010101012121212---|--7-7-7-7-7-7-7-7---|--8-8-8-810101010---||
||--------------------|--------------------|--------------------|--------------------||


| Gtr I
||--------------------|--------------------|--------------------|--------------------||
||--------------------|--------------------|--------------------|--------------------||
||--------------------|--------------------|--------------------|--------------------||
||--5-5-5-5-5-5-5-5---|--5-5-5-5-5-5-5-5---|--5-5-5-5-5-5-5-5---|--5-5-5-5-5-5-5-5---||
||--5-5-5-5-5-5-5-5---|--5-5-5-5-5-5-5-5---|--5-5-5-5-5-5-5-5---|--5-5-5-5-5-5-5-5---||
||--5-5-5-5-5-5-5-5---|--5-5-5-5-5-5-5-5---|--5-5-5-5-5-5-5-5---|--5-5-5-5-5-5-5-5---||
|
| Gtr II
||--------------------|--------------------|--------------------|--------------------||
||--------------------|--------------------|-1313131313131313---|-1313131313131313---||
||--7-7-7-7-7-7-7-7---|--9-9-91010101010---|--x-x-x-x-x-x-x-x---|--x-x-x-x-x-x-x-x---||
||--x-x-x-x-x-x-x-x---|--x-x-x-x-x-x-x-x---|-1010101010101010---|-1010101010101010---||
||--5-5-5-5-5-5-5-5---|--7-7-7-8-8-8-8-8---|--------------------|--------------------||
||--------------------|--------------------|--------------------|--------------------||


| Gtr I
||--------------------|--------------------|--------------------|--------------------||
||--------------------|--------------------|--------------------|--------------------||
||--------------------|--------------------|--------------------|--------------------||
||--8~----------------|--L-----------------|-10~----------------|--L-----------------||
||--8~----------------|--L-----------------|-10~----------------|--L-----------------||
||--8~----------------|--L-----------------|-10~----------------|--L-----------------||
|
| Gtr II
||--------------------|--------------------|--------------------|--------------------||
||--------------------|--------------------|--------------------|--------------------||
||-1010101010101010---|-1212121214141414---|--9-9-9-9-9-9-9-9---|-1010101012121212---||
||--x-x-x-x-x-x-x-x---|--x-x-x-x-x-x-x-x---|--x-x-x-x-x-x-x-x---|--x-x-x-x-x-x-x-x---||
||--8-8-8-8-8-8-8-8---|-1010101012121212---|--7-7-7-7-7-7-7-7---|--8-8-8-810101010---||
||--------------------|--------------------|--------------------|--------------------||


| Gtr I
||--------------------|--------------------|--------------------|--------------------||
||--------------------|--------------------|--------------------|--------------------||
||--------------------|--------------------|--------------------|--------------------||
||--0~----------------|--L-----------------|--3~----------------|--L-----------------||
||--0~----------------|--L-----------------|--3~----------------|--L-----------------||
||--0~----------------|--L-----------------|--3~----------------|--L-----------------||
|
| Gtr II
||--------------------|--------------------|--------------------|--------------------||
||--------------------|--------------------|-1313131313131313---|-1313131313131313---||
||--7-7-7-7-7-7-7-7---|--9-9-91010101010---|--x-x-x-x-x-x-x-x---|--x-x-x-x-x-x-x-x---||
||--x-x-x-x-x-x-x-x---|--x-x-x-x-x-x-x-x---|-1010101010101010---|-1010101010101010---||
||--5-5-5-5-5-5-5-5---|--7-7-7-8-8-8-8-8---|--------------------|--------------------||
||--------------------|--------------------|--------------------|--------------------||


| Gtr I
||--------------------|--------------------|--------------------|--------------------||
||--------------------|--------------------|--------------------|--------------------||
||--------------------|--------------------|--------------------|--------------------||
||--8-8-8-8-8-8-8-8---|--8-8-8-8-8-8-8-8---|-1010101010101010---|-1010101010101010---||
||--8-8-8-8-8-8-8-8---|--8-8-8-8-8-8-8-8---|-1010101010101010---|-1010101010101010---||
||--8-8-8-8-8-8-8-8---|--8-8-8-8-8-8-8-8---|-1010101010101010---|-1010101010101010---||
|
| Gtr II
||--------------------|--------------------|--------------------|--------------------||
||--------------------|--------------------|--------------------|--------------------||
||-1010101010101010---|-1212121214141414---|--9-9-9-9-9-9-9-9---|-1010101012121212---||
||--x-x-x-x-x-x-x-x---|--x-x-x-x-x-x-x-x---|--x-x-x-x-x-x-x-x---|--x-x-x-x-x-x-x-x---||
||--8-8-8-8-8-8-8-8---|-1010101012121212---|--7-7-7-7-7-7-7-7---|--8-8-8-810101010---||
||--------------------|--------------------|--------------------|--------------------||


| Gtr I
||--------------------|--------------------|--------------------|--------------------||
||--------------------|--------------------|--------------------|--------------------||
||--------------------|--------------------|--------------------|--------------------||
||--0-0-0-0-0-0-0-0---|--0-0-0-0-0-0-0-0---|--3-3-3-3-3-3-3-3---|--3-3-3-3-3-3-3-3---||
||--0-0-0-0-0-0-0-0---|--0-0-0-0-0-0-0-0---|--3-3-3-3-3-3-3-3---|--3-3-3-3-3-3-3-3---||
||--0-0-0-0-0-0-0-0---|--0-0-0-0-0-0-0-0---|--3-3-3-3-3-3-3-3---|--3-3-3-3-3-3-3-3---||
|
| Gtr II
||--------------------|--------------------|--------------------|--------------------||
||--------------------|--------------------|-1313131313131313---|-1313131313131313---||
||--7-7-7-7-7-7-7-7---|--9-9-91010101010---|--x-x-x-x-x-x-x-x---|--x-x-x-x-x-x-x-x---||
||--x-x-x-x-x-x-x-x---|--x-x-x-x-x-x-x-x---|-1010101010101010---|-1010101010101010---||
||--5-5-5-5-5-5-5-5---|--7-7-7-8-8-8-8-8---|--------------------|--------------------||
||--------------------|--------------------|--------------------|--------------------||



 [Transition-Outro: x1]
| Gtr I & II
||--------------------|--------------------|--------------------|--------------------||
||--------------------|--------------------|--------------------|--------------------||
||--------------------|-1414141414141414---|--------------------|-1515151515151515---||
||--0~----0~----0~----|--x-x-x-x-x-x-x-x---|--0~----0~----0~----|--x-x-x-x-x-x-x-x---||
||--0~----0~----0~----|-1212121212121212---|--0~----0~----0~----|-1313131313131313---||
||--0~----0~----0~----|--------------------|--0~----0~----0~----|--------------------||


| Gtr I
||--------------------|--------------------|--------------------|--------------------||
||--------------------|--------------------|--------------------|-1110---------------||
||--------------------|-1414141414141414---|--------------------|-----10-9-----------||
||--0~----0~----0~----|--x-x-x-x-x-x-x-x---|--0~----0~----0~----|---------10-9-------||
||--0~----0~----0~----|-1212121212121212---|--0~----0~----0~----|--------------8-7---||
||--0~----0~----0~----|--------------------|--0~----0~----0~----|--------------------||
|
| Gtr II
||--------------------|--------------------|--------------------|--------------------||
||--------------------|--------------------|--------------------|-1514---------------||
||--------------------|-1414141414141414---|--------------------|-----1514-----------||
||--0~----0~----0~----|--x-x-x-x-x-x-x-x---|--0~----0~----0~----|---------1514-------||
||--0~----0~----0~----|-1212121212121212---|--0~----0~----0~----|-------------1514---||
||--0~----0~----0~----|--------------------|--0~----0~----0~----|--------------------||



 [Outro I: x1]
| Gtr I & Gtr II
||--------------------|--------------------|--------------------|--------------------||
||--------------------|--------------------|--------------------|--------------------||
||--------------------|--------------------|--------------------|--------------------||
||--------------------|--------------------|--------------------|--------------------||
||--000-------000000--|--00--0--0----------|--000-------000000--|--00--0--0----------||
||--000-------000000--|--00--0--0----------|--000-------000000--|--00--0--0----------||
|   ...       ......     ..  .  .             ...       ......     ..  .  .


| Gtr I
||--------------------|--------------------|--------------------|------------------------------||
||--------------------|--------------------|--------------------|------------------------------||
||--------------------|--------------------|--------------------|------------------------------||
||--------------------|--------------------|--------------------|------------------------------||
||--000-------000000--|--00--0--0----------|--000-------000000--|--00--0--0-8h11p8p0s7h10p7p0--||
||--000-------000000--|--00--0--0----------|--000-------000000--|--00--0--0--------------------||
|   ...       ......     ..  .  .             ...       ......     ..  .  . 
|
| Gtr II
||--------------------|--------------------|--------------------|------------------------------||
||--------------------|--------------------|--------------------|------------------------------||
||--------------------|--------------------|--------------------|------------------------------||
||--------------------|--------------------|--------------------|-----------6h-9p6p0s5h-8p8p0--||
||--000-------000000--|--00--0--0----------|--000-------000000--|--00--0--0--------------------||
||--000-------000000--|--00--0--0----------|--000-------000000--|--00--0--0--------------------||
|   ...       ......     ..  .  .             ...       ......     ..  .  .



 [Outro II: x1]
| Gtr I & Gtr II
||--------------------|--------------------|--------------------|--------------------||
||--------------------|--------------------|--------------------|--------------------||
||--------------------|--------------------|--------------------|--------------------||
||--------------------|--------------------|--------------------|--------------------||
||--000-------000000--|--00--0--0-3--2--1--|--000-------000000--|--00--0--0----------||
||--000-------000000--|--00--0--0-3--2--1--|--000-------000000--|--00--0--0--8*v~----||
|   ...       ......     ..  .  . .  .  .     ...       ......     ..  .  .


| Gtr I & Gtr II
||--------------------|--------------------|--------------------|--------------------||
||--------------------|--------------------|--------------------|--------------------||
||--------------------|--------------------|--------------------|--------------------||
||--------------------|--------------------|--------------------|--------------------||
||--000-------000000--|--00--0--0-3--2--1--|--000-------000000--|--00--0--0--5*v~----||
||--000-------000000--|--00--0--0-3--2--1--|--000-------000000--|--00--0--0----------||
|   ...       ......     ..  .  . .  .  .     ...       ......     ..  .  .



||-----------------------------------------------------------------------------------||
|| Tablature Legend                                                                  ||
||                                                                                   ||
|| . - Palm Mute                                                                     ||
|| L - Tied Note                                                                     ||
|| x - Dead Note                                                                     ||
|| H - Harmonic                                                                      ||
|| * - Pinch Harmonic                                                                ||
|| h - Hammer On                                                                     ||
|| p - Pull Off                                                                      ||
|| b - Bend                                                                          ||
|| r - Release                                                                       ||
|| T - Tremolo                                                                       ||
|| s - Slide                                                                         ||
|| / - Pick Slide Upwards                                                            ||
|| \ - Pick slide Downwards                                                          ||
|| ~ - Ring                                                                          ||
|| v - Vibrato                                                                       ||
|| t - Tapping                                                                       ||
|| < - Fade In                                                                       ||
||                                                                                   ||
|| Creator  - Hyde                                                                   ||
|| Contact  - mirage_xid@hotmail.com                                                 ||
|| Reminder - This tablature is not 100%. Get the strumming timing by yourself.      ||
||-----------------------------------------------------------------------------------||
Tap to rate this tab
# A B C D E F G H I J K L M N O P Q R S T U V W X Y Z