Guitaretab - guitar tabs
Song name
# A B C D E F G H I J K L M N O P Q R S T U V W X Y Z

The Devil Wears Prada - Goats On A Boat tab

----------------------------------------------------------------------------
                 The Devil Wears Prada - Goats On A Boat
----------------------------------------------------------------------------
Tabbed by:ZackRulezd00d
Email:zackrulezd00d@yahoo.com

Hey Guys, Back With Another One. I Plan To Tab The ENTIRE Plagues Album (Yes, You Cant
Crap Without "c" Too) When I Have Time. I Already Know How To Play Them All I Just Have
Find The Time To Tab Them Out So Keep Checking For My Tabs Because They're AT LEAST 90% 
=]

Tuning:Drop D

e|-------------------------------------------------------------------------|
B|-------------------------------------------------------------------------|
G|---88888---888888---88888---------88888---888888---888888----------------|
D|---77777---777777---77777---------77777---777777---777777----------------|
A|-0-66666-0-666666-0-66666-3~-1~-0-66666-0-666666-0-666666-0~-------------|
D|-0-------0--------0-------3~-1~-0-------0--------0--------0~-------12\---|
X|                          x  x

e|-------------------------------------------------------------------------|
B|-------------------------------------------------------------------------|
G|---88888---888888---88888---------88888---888888---888888----------------|
D|---77777---777777---77777---------77777---777777---777777----------------|
A|-0-66666-0-666666-0-66666-3~-1~-0-66666-0-666666-0-666666-3~-1~-3~-1~-0~-|
D|-0-------0--------0-------3~-1~-0-------0--------0--------3~-1~-3~-1~-0~-|
X|                          x  x                            x  x  x  x  x


e|-------------------------------------------------------------------|x2
B|-------------------------------------------------------------------|
G|-------------------------------------------------------------------|
D|-------------------------------------------------------------------|
A|-0---------------------5h6p5-0-------------------------------------|
D|-0-000-000-8p5-000-000-------0-000-000-8p5-000-000-2h3p2-----------|
X|   xxx xxx     xxx xxx         xxx xxx     xxx xxx

e|-------------------------------------------------------------------- |x2
B|-------------------------------------------------------------------- |
G|-------------------------------------------------------------------- |
D|-------------------------------------------------------------------- |NOTE: Second Time
A|-0---------------------5h6p5-0-------------------------|End On A|-0- |
D|-0-0-0-0-0-8p5-0-0-0-0-------0-0-0-0-8p5-0-0-0-0-2h3p2-|       D|-0- |
X|   x x x x     x x x x         x x x     x x x x

                          ENDING
e|-------------------|x3|---------------------| Now Repeat Everything Twice.
B|-------------------|  |---------------------|
G|-------------------|  |---------------------|
D|-------------------|  |---------------------|
A|----8-7-8-10-8-7-5-|  |----8-7-8-8h10-7h8-5-|
D|-00----------------|  |-00------------------|
X| xx

e|-----------------------------------------------------------------------|x2
B|-----------------------------------------------------------------------|
G|-----------------------------------------------------------------------|
D|-----------------------10p7-11p7---------------888888777555------------|
A|-0---------8p7-------------------0---------8p7--------------8-----7----|
D|-0-000-000-----000-000-----------0-000-000------------------8>x16-7>x16|
X|   xxx xxx     xxx xxx             xxx xxx

e|-----------17----------18---------------------------------------|
B|--------------12-13-12----12-13-12------------------------------|
G|----------------------------------------------------------------|
D|----------------------------------------------------------------|
A|-00000-0-0-------------------------00000------------------------|
D|-00000-0-0-------------------------00000------------|
X| xxxxx x x                         xxxxx                        |
                                                                  |x2
e|----------------------------------------------------------------|
B|---------------------------12h13p12-----------------------------|
G|-------------------12h13p12--------12h13p12---------------------|
D|-----------12h13p12---------------------------------------------|
A|-00000-0-0----------------------------------00000---------------|
D|-00000-0-0----------------------------------00000----|
X| xxxxx x x                                  xxxxx
                                             ENDING 1 Repeat twice
e|-----------------------|x2|--------------|----------------------|
B|-----------------------|  |--------------|----------------------|
G|-----------------------|  |--------------|----------------------|
D|-----------------------|  |--------------|----------------------|
A|-8-----10-----0--------|  |-8-----10-----|-8\7-0-8\7-0----------|
D|-8>x16-10>x16-0>32-----|  |-8>x16-10>x16-|-8\7-0-8\7-0-000-000--|
X|                                                       xxx xxx
  "We, Are Searching For.." "Look Around.." "Notice The.."
[ Tab from: http://www.guitaretab.com/t/the-devil-wears-prada/94352.html ]
e|-------------------------------------------------------------------------|
B|-------------------------------------------------------------------------|
G|-------------------------------------------------------------------------|
D|-------------------------------------------------------------------------|
A|-8-----10-----8\7-0-8\7-0---------8\7-0-8\7-0---------10\7-0-10\7-0------|
D|-8>x16-10>x16-8\7-0-8\7-0-000-000-8\7-0-8\7-0-000-000-10\7-0-10\7-0-000--|
X|                          xxx xxx             xxx xxx               xxx
  "Drowning Your Simplicity.."

e|------------------|
B|------------------|
G|------------------|
D|------------------|
A|-----10----7----0-|
D|-000-10-00-7-00-0-|
X| xxx    xx   xx

e|-------------------------------------------------------------------------|
B|-------------------------------------------------------------------------|
G|-------------------------------------------------------------------------|
D|-------------------------------------------------------------------------|
A|-8-8-8-7-7-7-0-00000-000-8-8-8-7-7-7-8-8-8-0~-8-8-8-7-7-7-0-00000-000----|
D|-------------0-00000-000-------------------0~-------------0-00000-000----|
X|             x xxxxx xxx                   x              x xxxxx xxx
  Do P.M. On Open D In Between 8's And 7's As You Wish. Just 1 Recommended.

e|-------------------------------------------------------------------------|
B|-------------------------------------------------------------------------|
G|-------------------------------------------------------------------------|
D|-------------------------------------------------------------------------|
A|-8-8-8-7-7-7-0-00000-000-8-8-8-7-7-7-8-8-8-7-7-7-8-8-8-7-7-7-5~----------|
D|-------------0-00000-000-------------------------------------------------|
X|             x xxxxx xxx

e|-------------------------------------------------------------------------|
B|-------------------------------------------------------------------------|
G|-------------------------------------------------------------------------|
D|-------------------------------------------------------------------------|
A|-0000--0000-0000--0000--0000-0000-0-0-0000--0000-0000--0000--0000-0000---|
D|-0000--0000-0000--0000--0000-0000-0-0-0000--0000-0000--0000--0000-0000---|
X| xxxx  xxxx xxxx  xxxx  xxxx xxxx x x xxxx  xxxx xxxx  xxxx  xxxx xxxx

e|-------------------------------------------------------------------------|
B|-------------------------------------------------------------------------|
G|-10----9------10------9/10------10----12----9----------------------------|
D|-------------------------------------------------------------------------|
A|-8->x4-7>x4-0-8->x6-0-7/8->x6-0-8->x6-10>x8-7>x8-------------------------|
D|------------0-------0---------0------------------------------------------|

e|----------------------------------------------------------------------|x2
B|----------------------------------------------------------------------|
G|----12\10----10\9----9/10----12\10---9/10-9/10-9/10-------------------|
D|----------------------------------------------------------------------|
A|-00-10\8--00-8-\7-00-7/8--00-10\8-00-7/8--7/8--7/8--------------------|
D|-00-------00------00------00------00----------------------------------|
X| xx       xx      xx      xx      xx

e|----------------------------------------------------------------------|x2
B|----------------------------------------------------------------------|
G|----10\9----7\5----5/7----10\9----5/7-5/7-5/7-------------------------|
D|----------------------------------------------------------------------|
A|-00-8-\7-00-5\3-00-3/5-00-8-\7-00-3/5-3/5-3/5-------------------------|
D|-00------00-----00-----00------00-------------------------------------|
X| xx      xx     xx     xx      xx

e|-------------------------------------------------------------------------|
B|-------------------------------------------------------------------------|
G|---10------9/10------10----12----9---------------------------------------|
D|-------------------------------------------------------------------------|
A|-0-8->x6-0-7/8->x6-0-8->x6-10>x8-7>x8------------------------------------|
D|-0-------0---------0-----------------------------------------------------|
X|

  OUTRO
e|-------------------------------------------------------------------------|
B|-------------------------------------------------------------------------|
G|-7-----9-----10-----12---------------------------------------------------|
D|-------------------------------------------------------------------------|
A|-5>x16-7>x16-8->x16-10>x16-00-0000-0000----------------------------------|
D|---------------------------00-0000-0000----------------------------------|
X|                           xx xxxx xxxx

There You Go. Number 1 On The Plagues Album Complete. =]

I Will Post Them In Order When I Get The Time. I Would Just Do The Album But I Barely
Time To Throw One In Every Now And Then.. So Just Be Patient And They'll Be Up In No 
=]Rate And Comment Please. =]

| /  slide up
| \  slide down
| h  hammer-on
| p  pull-off
| ~  let ring
| +  harmonic
| x  Mute note
============================================================================
Related for Goats On A Boat tab
Advertisement will be closed in 10 seconds