Song name
# A B C D E F G H I J K L M N O P Q R S T U V W X Y Z

The Devil Wears Prada - Nickels Is Money Too tab

----------------------------------------------------------------------------
		Nickels Is Money Too - Devil Wears Prada
----------------------------------------------------------------------------
Tabbed by:rockonmetal83
Email:therabbit99999@yahoo.com

Tuning:Drop Dizzle (D A D G B E)


e|---------------------------------|
B|---------------------------------|
G|---------------------------------|
D|---------------------------------|
A|---------------------------------|
D|-000-000-000-000-000-000-000-000-|
P.M... ... ... ... ... ... ... ...


e|----------------------------------------------------|
B|----------------------------------------------------|
G|----------------------------------------------------|
D|----------------------------------------------------|
A|-000-000--00-000-000-0~--000-000-000-0~-------------|
D|-000-000--00-000-000-0~--000-000-000-0~-------------|
P.M... ...  .. ... ... .   ... ... ... .


e|-------------------------------------------------------|
B|-------------------------------------------------------|
G|-15-1414-12--14-1212-10-7777-------------7777-10101010-|
D|-x--x-x--x---x--x-x--x--xxxx-------------xxxx-x-x-x-x--|
A|-13-1212-10--12-1010-8--5555-000-000-000-5555-8-8-8-8--|
D|-----------------------------000-000-000---------------|
P.M                            ... ... ...


e|----------------|-----|
B|----------------|-----|
G|----------------|-----|
D|----------------|-<5>-|
A|-0-00--00-00-00-|-<5>-|
D|-0-00--00-00-00-|-----|
P.M. ..  .. .. ..


e|--------------------------|-----------------|
B|--------------------------|-----------------|
G|--------------------------|-----------------|
D|--------------------------|-----------------|
A|-0-00--00-00-00--0-0000-0-|-8p0-7p0-5p0-7p0-|
D|-0-00--00-00-00--0-0000-0-|-----------------|
P.M. ..  .. .. ..  . .... .



e|------------------------------------------|
B|------------------------------------------|
G|------------------------------------------|
D|------------------------------------------|
A|---5h8------------5h8----8p0-7p0-5p0-4p0--|
D|-00---00000-000000---0000-----------------|
P.M.. ..... ...... ....

e|------------------------------------------|
B|------------------------------------------|
G|------------------------------------------|
D|------------------------------------------|
A|---5h8------------5h8----8p0-7p0-5p0-4p0--|
D|-55---55555-555555---5555-----------------|
P.M.. ..... ...... ....

e|------------------------------------------|
B|------------------------------------------|
G|------------------------------------------|
D|------------------------------------------|
A|---5h8------------5h8----8p0-7p0-5p0-4p0--|
D|-88---88888-888888---8888-----------------|
P.M.. ..... ...... ....

e|------------------------------------------|
B|------------------------------------------|
G|------------------------------------------|
D|------------------------------------------|
A|---5h8------------5h8----8p0-7p0-5p0-4p0--|
D|-77---77777-777777---7777-----------------|
P.M.. ..... ...... ....

This section is repeated twice i think,
with the first two parts
not palm muted the second time through.


e|----|
B|----|
G|----|
D|-0~-|
A|-0~-|
D|-0~-|


e|--------|
B|-5---5~-|
G|-8---8~-|
D|--------|
A|---0----|
D|---0----|
P.M  .


e|-----------------------------------------|
B|-----------------------------------------|
G|---14--------14--------------------10/12-|
D|---x---------x---------------------x--x--|
A|-0-12-0----0-12-0--000-000-000-000-8-/10-|
D|-0----0----0----0--000-000-000-000-------|
P.M                  ... ... ... ...


e|-----------|
B|-----------|
G|-141414----|
D|-x-x-x-----|
A|-121212--0-|
D|---------0-|
P.M        .

Guitar 1
e|---------------------------------|
B|---------------------------------|
G|---------------------------------| 
D|-12121212-10101010-8888-12121212-| 
A|-12121212-10101010-8888-12121212-|
D|-12121212-10101010-8888-12121212-|


Guitar 2
e|-----------------------------------------------------------------|
B|-----------------------------------------------------------------|
G|-1414141414-10101010-12121212-1010101010101010-14141414-12121212-|
D|-x-x-x-x-x--x-x-x-x--x-x-x-x--x-x-x-x-x-x-x-x--x-x-x-x--x-x-x-x--| meh.
A|-1212121212-8-8-8-8--10101010-8-8-8-8-8-8-8-8--12121212-10101010-|
D|-----------------------------------------------------------------|


at 2:38... Im not sure if this is keyboard or not but
e|-------------------------------------|
B|-------------------------------------|
G|-14-12-10-12-10-12/14-12-14-15-14-12-|
D|-x--x--x--x--x--x--x--x--x--x--x--x--|
A|-12-10-8--10-8--10/12-10-12-13-12-10-|
D|-------------------------------------|


e|--------------|---|
B|--------------|---|
G|--------------|---|
D|-0-0-0-0------|-1-|
A|-0-0-0-0-//\\-|-1-|
D|-0-0-0-0-//\\-|-1-|

This part consists only of opens, open palm mutes, and that D# chord.
I think you can figure it out.



Guitar 1
e|-------------------------------------------------------|
B|-------------------------------------------------------|
G|--------------------------------------/10-12-10-9-10-9-|
D|-------------------------------------------------------|
A|-0-00-0-00-0-00-0-00-0-0-0-0-0-00-0-00-----------------|
D|-0-00-0-00-0-00-0-00-0-0-0-0-0-00-0-00-----------------|
P.M  ..   ..   ..   ..   .   .   ..   ..

Guitar 2
e|---------------------------------------------------------|
B|---------------------------------------------------------|
G|---------------------------------------------------------|
D|--------------------------------------/12-14-12-10-12-10-|
A|-0-00-0-00-0-00-0-00-0-0-0-0-0-00-0-00-------------------|
D|-0-00-0-00-0-00-0-00-0-0-0-0-0-00-0-00-------------------|
P.M  ..   ..   ..   ..   .   .   ..   ..

Guitar 1
e|-----------------------------------|
B|-----------------------------------|
G|------------------/10-12-10-9-10-9-|
D|-----------------------------------|
A|-0-0---00-0---0-0------------------|
D|-0-0---00-0---0-0------------------|
P.M. .   .. .   . .

Guitar 2
e|-------------------------------------|
B|-------------------------------------|
G|-------------------------------------|
D|------------------/12-14-12-10-12-10-|
A|-0-0---00-0---0-0--------------------|
D|-0-0---00-0---0-0--------------------|
P.M. .   .. .   . .



Ahhh.
Tap to rate this tab
 
# A B C D E F G H I J K L M N O P Q R S T U V W X Y Z