Song name
# A B C D E F G H I J K L M N O P Q R S T U V W X Y Z

The Devil Wears Prada - Scorpion Deathlock tab

----------------------------------------------------------------------------
		The Devil Wears Prada - The Scorpion Deathlock
----------------------------------------------------------------------------
Tabbed by: steve        myspace.com/chiefwiggums83
Email: therabbit99999@yahoo.com

Tuning: Drop Deezy fo sheezy (D A D G B E) ok.

If your more of a visual learner, watch this: 
http://youtube.com/watch?v=JZfh_QPI7GQ


Intro
0:00
Strumming is completely incorrect, but use these octaves:
e|---------------------------|
B|---------------------------|
G|-15-15-14-12-14-14-14-10-9-|
D|-x--x--x--x--x--x--x--x--x-|
A|-13-13-12-10/12-12-12-8--7-|
D|---------------------------|


0:09
e|--------------------------------------------------------|
B|--------------------------------------------------------|
G|--------------------------------------------------------|
D|--------------------------------------------------------|
A|-----8p0-7p0--10-8--7h8p7p0-----8p0-7p0--10-8---7h8p7p0-|
D|-0-0---------0--0-0---------0-0---------0--0--0---------| x2
P.M. .         . .  .         . .         .  .  .


0:19
e|--------------------------------------------------|
B|--------------------------------------------------|
G|------------------------------------------777-999-|
D|------------------------------------------xxx-xxx-|
A|-----8p7---5p0-0-0--0-0-0-0--0-0--0-0-0-0-555-777-|
D|-0-0-----0-----0-0--0-0-0-0--0-0--0-0-0-0---------| x2
P.M. .     .     . .  . . . .  . .  . . . .

Chorus
0:28
Guitar 1
e|---------------------------------------------------------------------|
B|---------------------------------------------------------------------|
G|-------------------------------------12///---------------------------|
D|-12121212121212-10101010101010-88888-x-----00000000-1010101010101010-|
A|-12121212121212-10101010101010-88888-10///-00000000-1010101010101010-|
D|-12121212121212-10101010101010-88888-------00000000-1010101010101010-|

Guitar 2
e|-----------------------------------------------------------------------|
B|-----------------------------------------------------------------------|
G|-171717171717171717171717171717-------12///----------------------------|
D|-x-x-x-x-x-x-x-x-x-x-x-x-x-x-x--88888-x------00000000-1010101010101010-|
A|-151515151515151515151515151515-88888-10///--00000000-1010101010101010-|
D|--------------------------------88888--------00000000-1010101010101010-|


0:40
e|------------------------|
B|------------------------|
G|------12///------10///--|
D|-8888-x-----8888-x------|
A|-8888-10///-8888-8////--|
D|-8888-------8888--------|


0:42,1:02
e|-----------------------------------|
B|-----------------------------------|
G|-----------------------------------|
D|-----------------------------------|
A|-0-0-0---0-0-0-0--0-0-0-0--0-0-0-0-|       
D|-0-0-0---0-0-0-0--0-0-0-0--0-0-0-0-| x4 (3rd time guitar 2 huge pickslide)
P.M. . .   . . . .  . . . .  . . . .


0:57
e|-----------------------------------------|
B|-----------------------------------------|
G|-----------------------------------------|
D|-----------------------------------------|
A|-0-000-000-000-000-000-000-000-000-000-0-|
D|-0-000-000-000-000-000-000-000-000-000-0-|
P.M. ... ... ... ... ... ... ... ... ... .


1:12
e|-----------------------------------|
B|-------12--------------------------|
G|-------15--------------------------|
D|-----------------------------------|
A|-0-0-0---0-0-0-0--0-0-0-0--0-0-0-0-|
D|-0-0-0---0-0-0-0--0-0-0-0--0-0-0-0-|
P.M. . .   . . . .  . . . .  . . . .


1:23
e|----------------------------|
B|----------------------------|
G|-77777777-88888888-77777777-|
D|-xxxxxxxx-xxxxxxxx-xxxxxxxx-|
A|-55555555-66666666-55555555-|
D|----------------------------|


1:29
e|--------------------------------------------|
B|--------------------------------------------|
G|--------------------------77777777-88888888-|
D|--------------------------xxxxxxxx-xxxxxxxx-|
A|-8p7----------------------55555555-66666666-|
D|-----00-8p7-00-7p5-00-3h5-------------------|
P.M    ..     ..     ..


(Slide down into)

1:43                                 First  Second (Endings)
e|----------------------------------|------|------|
B|----------------------------------|------|------|
G|----------------------------------|------|------|
D|----------------------------------|------|------|
A|-1-2-1-1-1--2-1-0----1-2-1-1-1--2-|---1*-|-1*---|
D|-0-3-2-0-2--3-2-1----0-3-2-0-2--3-|-2*---|---2*-|
P.M. . . . .  . . .    . . . . .  . 


Guitar 1
1:56
TP = tremolo pick (if you couldnt tell)
e|----------------------------------------------------------------|
B|----------------------------------------------------------------|
G|----------------------------------------------------------------|
D|--------------------------------------------3tp-5tp-3tp---------|
A|-3tp-5tp-6tp-5tp-3tp-5tp-6tp-3tp-5tp-6tp-5tp------------6tp-5tp-|
D|----------------------------------------------------------------|

Guitar 2
e|---------------------|
B|---------------------|
G|---------------------|
D|---------------------|
A|-0000-0-0-0---0000-0-|
D|-0000-0-0-0---0000-0-|
P.M.... . . .   .... .


2:09
e|-------------------|
B|-10-1010-1010-1010-|
G|-10-1010-1010-1010-|
D|-x--x-x--x-x--x-x--|
A|-8--8-8--8-8--8-8--|
D|-------------------|



Chorus
2:12
Guitar 1
e|-----------------------------------------------------------------|
B|-----------------------------------------------------------------|
G|-----------------------------------------------------------------|
D|-12121212121212-10101010101010-8888888-00000000-1010101010101010-|
A|-12121212121212-10101010101010-8888888-00000000-1010101010101010-|
D|-12121212121212-10101010101010-8888888-00000000-1010101010101010-|

Guitar 2
e|---------------------------------------------------------------------|
B|---------------------------------------------------------------------|
G|-171717171717171717171717171717-141414141414-------------------------|
D|-x-x-x-x-x-x-x-x-x-x-x-x-x-x-x--x-x-x-x-x-x--00000000-10101010101010-|
A|-151515151515151515151515151515-121212121212-00000000-10101010101010-|
D|---------------------------------------------00000000-10101010101010-|


2:27
e|---------------|
B|---------------|
G|---------------|
D|-8-8--88-8-8-8-|
A|-8-8--88-8-8-8-|
D|-8-8--88-8-8-8-|


*Drum fill you cant play without a smile on your face*


2:30
e|---------------|
B|---------------|
G|---------------|
D|-0-0--00-0-0-0-|
A|-0-0--00-0-0-0-|
D|-0-0--00-0-0-0-|


2:35
e|---------------------------|
B|---------------------------|
G|------10/9-----------------|
D|------7-/5--------------5~-| Let the last two notes
A|------8-/7-----------7h8~--| run into each other
D|-0-0-0-----0000-0-0-0------| x4
P.M. . .     .... . . .


2:47
e|----------------|
B|----------------|
G|----------------|
D|----------------|
A|-0-0--0-0-0-0-0-|
D|-0-0--0-0-0-0-0-|
P.M. .  . . . . . 


2:58
e|----|
B|----|
G|----|
D|-0~-|
A|-0~-|
D|-0~-|


Make the picking slow and sludgy to get that mean nig to the chords
This is so heavy it made me laugh. 
3:06
e|-----------------------------Crazy---------------------------------------|
B|-----------------------------wammy---------------------------------------|
G|-----------------------------shit----------------------------------------|
D|-------------------------------------------------------------------------|
A|-1--2-1-1-1--2-1-0---1--2-1-1-------1--2-1-1-1--2-1-0--1--2-1-1--1--0--0-|
D|-0--3-2-0-2--3-2-1---0--3-2-0-------0--3-2-0-2--3-2-1--0--3-2-1--2--1--0-|
P.M.  . . . .  . . .   .  . . .       .  . . . .  . . .  .  . . .  .  .  

Then viciously detune
or
use your wammy bar if you got one
luckys.
Tap to rate this tab
 
# A B C D E F G H I J K L M N O P Q R S T U V W X Y Z