Song name
# A B C D E F G H I J K L M N O P Q R S T U V W X Y Z

The Devil Wears Prada - Cant Spell Crap Without C tab

-------------------------------------------------------------------------------
			     Can't Spell Crap w/o C! - The Devil Wears Prada
-------------------------------------------------------------------------------
Tabbed by: Darian (http://wwww.deadbolt.creative-illusions.net)
Email:darianln@yahoo.com

Note: This is my first tab...which I did by ear mind you. It's important that you listen 
and figure out the palm rhythms and breakdowns yourself. Whatever, love it or hate it.


| h  hammer-on
| p  pull-off
| .  Mute note
| x2 repeat twice
| \/ slide

Tuning: DROP D!

Intro: repeat twice
(fast picking)
e|---------------------------------------------------------------------------|
B|---------------------------------------------------------------------------|
G|---------------------------------------------------------------------------|
D|-----------------------0-0-0-0--x2-----------------------------------------|
A|---5---4-3-------5-----0-0-0-0---------------------------------------------|
D|0-3--3--3--3-0-3---3---0-0-0-0------6-5-3-/1\3-----------------------------|
                         . . . .


Verse 1: repeat twice
e|---------------------------------------------------------------------------|
B|---------------------------------------------------------------------------|
G|--------------------------------------------------------------------x2-----|
D|---------------------------------------------------------------------------|
A|-----------3--------8----------------------5h6-----------------------------|
D|--000-000-----h5--0--0--5h8--0-3--333--333--------6-5-3-/1\3---------------|
    ... ...         .  .       .    ...  ...

(Figure out the rhythm for the pre-chorus yourself!)


e|---------------------------------------------------------------------------|
B|---------------------------------------------------------------------------|
G|----------------------------------------------x2---------------------------|
D|6--5-3-1-3-1-6-5-3--0000-0000----------------------------------------------|
A|6--5-3-1-3-1-6-5-3--0000-0000----------------------------------------------|
D|6--5-3-1-3-1-6-5-3--0000-0000----------------------------------------------|
                      .... ....
Then the bad ass breakdown! (figure out the rhythm!)

e|---------------------------------------------------------------------------|
B|---------------------------------------------------------------------------|
G|---------------------------------------------------------------------------|
D|000-000-10-10-10--9--9--9-00----10-0000---0000---------7--00---------------|
A|000-000-x--x---x--x--x--x-00--8----0000---0000-blah--8----00-blah----------|
D|000-111-8--8---8--7--7--7-00-------0000---0000------------00---------------|
  ... ...                   ..       ....   ....            ..

"wond by wond"
e|---------------------------------------------------------------------------|
B|---------------------------------------------------------------------------|
G|---------------------------------------------------------------------------|
D|101010--9-9-9--1010-10--12--12-12--141414----------------------------------|
A|x-x-x---x-x-x--x-x--x----x---x--x---x-x-x----------------------------------|
D|8-8-8---7-7-7--8-8--8---10--10-10--121212----------------------------------|


Then the badass riff. (repeat it a lot)
e|---------------------------------------------------------------------------|
B|---------------------------------------------------------------------------|
G|---------------------------------------------------------------------------|
D|---------------------------------------------------------------------------|
A|---------------------------------------------------------------------------|
D|12-0000-12h13h12--0000--3h4h3--0000--5-00-4-00-3--12-0000--12h13h12--0000--|
     ....           ....         ....    ..   ..       ....            ....
e|---------------------------------------------------------------------------|
B|---------------------------------------------------------------------------|
G|---------------------------------------------------------------------------|
D|-------------3--0----15-15--15-0---15-0--14-0--14--0---16------------------|
A|-------------3--0----14-14--14-0---14-0--13-0--14--0---15------------------|
D|5-00-4-0000--3--0----13-13--13-0---13-0--12-0--13--0---14------------------|
    ..   ....


===============================================================================
Tap to rate this tab
# A B C D E F G H I J K L M N O P Q R S T U V W X Y Z