The Dexateens - Makers Mound tab

Dexateens : Makers Mound
Tab by Luke Cooper.

Main Riff

E  [--2-----------------------2--------------------|
B  [--3-----------------------3--------------------|
G  [--2-----------------------2--------------------|   X2
D  [-----3b---5-5-5-5-3-------3b---5-5-5-3---------|
A  [-----3b---5-5-5-5-3-------3b---5-5-5-3---------|
E  [-----3b---3-3-3-3-1-------3b---3-3-3-1---------|

Verse

E  [--2-2-2---1-1-1--2-2-2--0-0-0----------|
B  [--3-3-3---1-1-1--3-3-3--1-1-1----------|
G  [--2-2-2---2-2-2--2-2-2--0-0-0----------|  Repeat as necessary.
D  [-----------3-3-3-----------2-2-2-------|
A  [-----------------------------3-3-3-----|
E  [---------------------------------------|

Pre-chorus

E   [--2--1--3--1--2-----|
B   [--3--1--0--1--3-----|
G   [--3--2--0--2--2-----|  X2
D   [------3--0--3-------|
A   [---------2----------|
E   [---------3----------|

Back to main riff.

E  [--2-----------------------2--------------------|
B  [--3-----------------------3--------------------|
G  [--2-----------------------2--------------------|   X2
D  [-----3b---5-5-5-5-3-------3b---5-5-5-3---------|
A  [-----3b---5-5-5-5-3-------3b---5-5-5-3---------|
E  [-----3b---3-3-3-3-1-------3b---3-3-3-1---------|


Bridge.

E  [----------------------------|
B  [----------------------------|
G  [-----------2----------------|  Repeat that a few times with a few bits of yer own variation.
D  [--0--0h3----0h3--3-------0--|
A  [-----------------------0h3--|
E  [----------------------------|



Back to main riff

E  [--2-----------------------2--------------------|
B  [--3-----------------------3--------------------|
G  [--2-----------------------2--------------------|   X2
D  [-----3b---5-5-5-5-3-------3b---5-5-5-3---------|
A  [-----3b---5-5-5-5-3-------3b---5-5-5-3---------|
E  [-----3b---3-3-3-3-1-------3b---3-3-3-1---------|


Finish up with.

E   [--2--1--3--1--2-----|
B   [--3--1--0--1--3-----|
G   [--3--2--0--2--2-----|  X2
D   [------3--0--3-------|
A   [---------2----------|
E   [---------3----------|

Thats about it I reckon.
http://www.dexateens.net/
Tap to rate this tab
 
# A B C D E F G H I J K L M N O P Q R S T U V W X Y Z