Song name
# A B C D E F G H I J K L M N O P Q R S T U V W X Y Z

The Dials - Diamonds In The Dark tab

-------------------------------------------------------------------------------
	            DIAMONDS IN THE DARK - The High Dials
			      - Guitar Intro -
-------------------------------------------------------------------------------
Tabbed by: Assassin
Email:

Tuning: Standard

e|------------------------------------------------------0-0-0-0--------------|
B|---9/11--------11---11\9----9-----5--5/7-7---x-7------5-4-2-0------0-------|
G|----------------------------------------------------------------1h3----3---|
D|---9/11----9/11---11------9-----6----6/8-8---x-8-----------------------4---|
A|---------------------------------------------------------------------------|
E|---------------------------------------------------------------------------|


| /  slide up
| \  slide down
| h  hammer-on
| p  pull-off
| ~  vibrato
| +  harmonic
| x  Mute note
===============================================================================
Tap to rate this tab
# A B C D E F G H I J K L M N O P Q R S T U V W X Y Z