Song name
# A B C D E F G H I J K L M N O P Q R S T U V W X Y Z

The Dials - Soul In Lust tab

-------------------------------------------------------------------------------
	                SOUL IN LUST - The High Dials
			      - Guitar Intro -
-------------------------------------------------------------------------------
Tabbed by: Assassin
Email:
Tuning: Standard

    A#m                             F# 

e|--9---11--13-------16-------------9---11--9--------------------------------|
B|--11--11--11-------14-------------11--11--11--------13p11------------------|
G|--10--10--10-------15-------------11--11--11--------------11---------------|
D|---------------------------------------------------------------------------|
A|---------------------------------------------------------------------------|
E|---------------------------------------------------------------------------|

    A#m                             F#

e|--9---11--13-----------16---------9---11--9---------9\8\6------------------|
B|--11--11--11---------14-----------11--11--11-----11--------7p6-------------|
G|--10--10--10-------15-------------11--11--11-------------------------------|
D|---------------------------------------------------------------------------|
A|---------------------------------------------------------------------------|
E|---------------------------------------------------------------------------|



| /  slide up
| \  slide down
| h  hammer-on
| p  pull-off
| ~  vibrato
| +  harmonic
| x  Mute note
===============================================================================
Tap to rate this tab
# A B C D E F G H I J K L M N O P Q R S T U V W X Y Z