Guitaretab - guitar tabs
Song name
# A B C D E F G H I J K L M N O P Q R S T U V W X Y Z

The Dials - Bye Bye Bye Bye Baby tab

These guys rock you should check them out!
Their website is: thedials.us
BYE BYE BYE BYE BABY-THE DIALS
Tabbed By Sam G.
INTRO/VERSE/CHORUS
Use these same 4 chords throughout song
|--------------------------------------------------------------|
|--------------------------------------------------------------|
|--------------------------------------------------------------|
|-11-11-11111111-----------------------------------------------|
|-9--9--9-9-9-9--11-1111111111-9--9-9-9-9-9-11-1111111111------|
|-----------------9--9-9-9-9-9--7--7-7-7-7-7-9---9-9-9-9-9-----|

On the chorus, at the end it goes like this:
[ Tab from: http://www.guitaretab.com/t/the-dials/83233.html ]
|-------------------------------------------------------------|
|-------------------------------------------------------------|
|-------------------------------------------------------------|
|-------------------------------------------------------------|
|-999999999999-111111111111-9999999999999-1111111111111-------|
|-777777777777-99999999999--7777777777777-999999999999--------|

BRIDGE

|--------------------------|
|--------------------------|
|--------------------------|
|-11-----------------------|
|-9------11-----9-------11-|
|--------9------7-------9--|

End on this

|----------------------|
|----------------------|
|----------------------|
|-1111111111111--------|
|-999999999999---------|
|----------------------|
Related for Bye Bye Bye Bye Baby tab