Guitaretab - guitar tabs
Song name
# A B C D E F G H I J K L M N O P Q R S T U V W X Y Z

The Dials - Stuck Inside tab

#----------------------------------PLEASE NOTE---------------------------------#
#This file is the author's own work and represents their interpretation of the #
#song. You may only use this file for private study, scholarship, or research. #
#------------------------------------------------------------------------------#

This is the intro to stuck inside by Sebastian Bach. It comes off of his new album 
Down' and I highly recommend this album.  This is one of the three songs that he sings with AXL.

DROP D TUNING

Gtr I (D A D G B E)

  Q=100
 4/4
  Gtr I
|---------------------------------|------------------------------------------|
|---------------------------------|------------------------------------------|
|---------------------------------|------------------------------------------|
|-0-2-3-5-3-2-0-2-3-2-0-3-2-0-3-2-|-0-2-3-5-3-2-0-2-3-2-0-2------------------|
|-0-2-3-5-3-2-0-2-3-2-0-3-2-0-3-2-|-0-2-3-5-3-2-0-2-3-2-0-2------------------|
|-0-2-3-5-3-2-0-2-3-2-0-3-2-0-3-2-|-0-2-3-5-3-2-0-2-3-2-0-2-[2]-[2]-[2]-[2]--|


|---------------------------------|------------------------------|
|---------------------------------|------------------------------|
|---------------------------------|------------------------------|
|-0-2-3-5-3-2-0-2-3-2-0-3-2-0-3-2-|-0-2-3-5-3-2-0-2-3-2-0-2------|
|-0-2-3-5-3-2-0-2-3-2-0-3-2-0-3-2-|-0-2-3-5-3-2-0-2-3-2-0-2------|
|-0-2-3-5-3-2-0-2-3-2-0-3-2-0-3-2-|-0-2-3-5-3-2-0-2-3-2-0-2------|

[ Tab from: http://www.guitaretab.com/t/the-dials/83252.html ]
  PM----------------------------------------------------------------------------|
|---------------------------------|---------------------------------------------|
|---------------------------------|---------------------------------------------|
|---------------------------------|---------------------------------------------|
|-0-2-3-5-3-2-0-2-3-2-0-3-2-0-3-2-|-0-2-3-5-3-2-0-2-3-2-0-2---------------------|
|-0-2-3-5-3-2-0-2-3-2-0-3-2-0-3-2-|-0-2-3-5-3-2-0-2-3-2-0-2---------------------|
|-0-2-3-5-3-2-0-2-3-2-0-3-2-0-3-2-|-0-2-3-5-3-2-0-2-3-2-0-2-[2]-[2]-[2]-[2]-----|


  PM---------------------------------------------------------------|
|---------------------------------|--------------------------------|
|---------------------------------|--------------------------------|
|---------------------------------|--------------------------------|
|-0-2-3-5-3-2-0-2-3-2-0-3-2-0-3-2-|-0-2-3-5-3-2-0-2-3-2-0-2--------|
|-0-2-3-5-3-2-0-2-3-2-0-3-2-0-3-2-|-0-2-3-5-3-2-0-2-3-2-0-2--------|
|-0-2-3-5-3-2-0-2-3-2-0-3-2-0-3-2-|-0-2-3-5-3-2-0-2-3-2-0-2--------|

Tablature Legend
----------------
 h   - hammer-on
 p   - pull-off
 b   - bend
 pb  - pre-bend
 r   - bend release (if no number after the r, then release immediately)
 /\  - slide into or out of (from/to "nowhere")
 s   - legato slide
 S   - shift slide
 - natural harmonic
[n]  - artificial harmonic
n(n) - tapped harmonic
 ~   - vibrato
 tr  - trill
 T   - tap
 TP  - trem. picking
 PM  - palm muting
\n/  - tremolo bar dip; n = amount to dip
 \n  - tremolo bar down
 n/  - tremolo bar up
/n\  - tremolo bar inverted dip
 =   - hold bend; also acts as connecting device for hammers/pulls
 <> - volume swell (louder/softer)
 x   - on rhythm slash represents muted slash
 o   - on rhythm slash represents single note slash

Misc Legend
-----------
 |  - bar
||  - double bar
||o - repeat start
o|| - repeat end
*|  - double bar (ending)
 :  - bar (freetime)
 $  - Segno
 &  - Coda
Tempo markers -  = BPM(8/16=s8/s16), where s8 = swing 8ths, s16 = swing 16ths
Related for Stuck Inside tab