Song name
# A B C D E F G H I J K L M N O P Q R S T U V W X Y Z

The Dicks - Marilyn Buck tab

---------------------------------------------------------------------------
                             Marilyn Buck Ė The Dicks
---------------------------------------------------------------------------
Tabbed by: bthompson93
E-mail: bthompson93@ymail.com

ALBUM: KILL FROM THE HEART (1983)
GUITARIST: Buxf Parrot

Website:
https://www.facebook.com/thedicks
https://files.nyu.edu/cch223/public/usa/dicks_main.html

Tuning: Standard

  INTRO/CHORUS RIFF:
e|-----------------------------|
B|-----------------------------|
G|-----------------------------|
D|-12-10-9-XXX-7-5-9-XXX-------|
A|-12-10-9-XXX-7-5-9-XXX-------|
E|-10-8--7-XXX-5-3-7-XXX-------|

  VERSE RIFF*:
e|------------------------------------|
B|------------------------------------|
G|------------------------------------|
D|-5-5-5-5--9-9-9-9--5-5-5-5--9-9-9-9-|
A|-5-5-5-5--9-9-9-9--5-5-5-5--9-9-9-9-|
E|-3-3-3-3--7-7-7-7--3-3-3-3--7-7-7-7-|

*Parrot plays variations on this riff. You can figure them out by listening to the song.

  OUTRO RIFF:
e|------------|
B|------------|
G|------------|
D|-12-10-9----|
A|-12-10-9----|
E|-10-8--7----|


ARANGEMENT:
INTRO X 4
VERSE X 2
CHORUS X 2
VERSE X 2
CHORUS X 2
VERSE (SOLO) X 2
CHORUS X 3
OUTRO X 1

LYRICS:
Itís Death to the USA
Itís Death to the USA
Where is the underground?
Could it be surfacing?
Maybe like Carol Durant?
Maybe like Sister Buck?
Itís Death to the USA
Itís Death to the USA
I suspect the underground says:
I support the Weather Underground.
Itís not for the hell of it.
Itís to tear this fucking nation down.
Itís Death to the USA
Itís Death to the USA
Itís Death to the USA


************************************

| /   slide up
| \   slide down
| h   hammer-on
| p   pull-off
| ~   vibrato
| +   harmonic
| x   Mute note
| b   Bend
| pb  Pre-bend
| br  Bend release
| pbr Pre-bend release
| brb Bend release bend

************************************
Tap to rate this tab
 
# A B C D E F G H I J K L M N O P Q R S T U V W X Y Z