Song name
# A B C D E F G H I J K L M N O P Q R S T U V W X Y Z

The Digital Age - All The Poor And Powerless tab

-------------------------------------------------------------------------------
                  ALL THE POOR AND POWERLESS - The Digital Age
-------------------------------------------------------------------------------

Tabbed by: Micah Jayne
Email: micahjayne@gmail.com

Tuning: Open E (E B E G# B E)

The Digital Age - All the Poor and Powerless
http://www.thedigitalagemusic.com/

Video here:
http://www.youtube.com/watch?v=-iG2wUL1vTY

Enjoy!


Intro (0:12)

E |----------------------------------------------------------------|
B |----------------------------------------------------------------|
G#|------0------0------0------0-------------0-------------0--------|
E |----0------0------0------0----0---0----0----0---0----0----0---0-|
B |----------------------------------------------------------------|
E |-0------2------4------5---------5---5---------5---5---------5---|

E |----------------------------------------------------------------|
B |----------------------------------------------------------------|
G#|------0------0------0------0-------------0-------------0--------|
E |----0------0------0------0----0---0----0----0---0----0----0---0-|
B |----------------------------------------------------------------|
E |-9------7------4------5---------5---5---------5---5---------5---| both bars X4

Verse 1 (1:10)

E |----------------------------------------------------------------|
B |----------------------------------------------------------------|
G#|------0------0------0------0-------------0-------------0--------|
E |----0------0------0------0----0---0----0----0---0----0----0---0-|
B |----------------------------------------------------------------|
E |-0------2------4------5---------5---5---------5---5---------5---|

E |----------------------------------------------------------------|
B |----------------------------------------------------------------|
G#|------0------0------0------0-------------0-------------0--------|
E |----0------0------0------0----0---0----0----0---0----0----0---0-|
B |----------------------------------------------------------------|
E |-9------7------4------5---------5---5---------5---5---------5---| both bars X2

E |--------------------------------------|
B |--------------------------------------|
G#|------0------0------0------0----0h1p0-|
E |----0------0------0------0----0-------|
B |--------------------------------------|
E |-9------7------4------0---------------|

Chorus 1 (1:45)

E |-0------0------0-|
B |-0------0------0-|
G#|-8------5------0-|
E |-9------5------0-|
B |-X------X------0-|
E |-9------5------0-| X4

E |---0------0---0-0-0-|
B |---0------0---0-0-0-|
G#|---7------7h8-8p7-7-|
E |---7------7---7-7-7-|
B |---X------X---X-X-X-|
E |-5/7------7---7-7-7-|

Verse 2 (2:18)

E |--------------------------------------------------|
B |--------------------------------------------------|
G#|------0------0------0------0-------------0--------|
E |----0------0------0------0----0---0----0----0---0-|
B |--------------------------------------------------|
E |-0------2------4------5---------5---5---------5---|

E |--------------------------------------------------|
B |--------------------------------------------------|
G#|------0------0------0------0-------------0--------|
E |----0------0------0------0----0---0----0----0---0-|
B |--------------------------------------------------|
E |-9------7------4------5---------5---5---------5---| both bars X2

E |--------------------------------------------------|
B |--------------------------------------------------|
G#|------0------0------0------0-------------0--------|
E |----0------0------0------0----0---0----0----0---0-|
B |--------------------------------------------------|
E |-9------7------4------0---------0---0---------0---|

Chorus 2 (2:47)

E |----------------------------------------------------------|
B |----------------------------------------------------------|
G#|------8-------------5--------------0-------------0--------|
E |----9----9---9----5----5---5-----0----0---0----0----0---0-|
B |----------------------------------------------------------|
E |-9---------9---5---------5----0---------0---0---------0---| X3

E |--------------------------------------------------------------------------------------0-|
B |--------------------------------------------------------------------------------------0-|
G#|------8-------------5--------------0------0------0------------7------7------7-7/8-8\7-7-|
E |----9----9---9----5----5---5-----0----0--------0----0-------7----7--------7-----------7-|
B |--------------------------------------------------------------------------------------X-|
E |-9---------9---5---------5----0---------0---0---------5/7-7--------7---7--------------7-|

E |-0---------------------------------------------------------|
B |-0---------------------------------------------------------|
G#|-0------------------0------0------0------0-------0-------0-|
E |-0----------------0----0--------0----0-------0---------0---|
B |-0---------------------------------------------------------|
E |-0-----------------------0---0---------0---0---0---5/7-----|

    ^ (strum from the top down)

E |-----------------------------|
B |-----------------------------|
G#|------0------0------0------0-|
E |----0----0--------0----0-----|
B |-----------------------------|
E |-0---------0---0---------0---| X2

Bridge (3:32)

E |---------------------------------------------------------|
B |---------------------------------------------------------|
G#|------0------0------0-------------0------0------0--------|
E |----0----0--------0----0---0----0----0--------0----0-----|
B |---------------------------------------------------------|
E |-0---------0---0---------0---0---------0---0---------0/7-|

E |---------------------------------------------------------|
B |---------------------------------------------------------|
G#|------7------7------7-------------7------7------7--------|
E |----7----7--------7----7---7----7----7--------7----7-----|
B |---------------------------------------------------------|
E |-7---------7---7---------7---7---------7---7---------7/9-|

E |---------------------------------------------------------|
B |---------------------------------------------------------|
G#|------8------8------8-------------8------8------8--------|
E |----9----9--------9----9---9----9----9--------9----9-----|
B |---------------------------------------------------------|
E |-9---------9---9---------9---9---------9---9---------9\5-|

E |---------------------------------------------------------|
B |---------------------------------------------------------|
G#|------5------5------5-------------3------3------3------3-|
E |----5----5--------5----5---5----5----5--------5----5-----|
B |---------------------------------------------------------|
E |-5---------5---5---------5---5---------5---5---------5---|

Second bar changes this time:

E |---------------------------------------------------------|
B |---------------------------------------------------------|
G#|------0------0------0-------------0------0------0--------|
E |----0----0--------0----0---0----0----0--------0----0-----|
B |---------------------------------------------------------|
E |-0---------0---0---------0---0---------0---0---------0/7-|

E |---------------------------------------------------------|
B |---------------------------------------------------------|
G#|------7------7------7-------------7------8------7--------|
E |----7----7--------7----7---7----7----7------7------7-----|
B |---------------------------------------------------------|
E |-7---------7---7---------7---7---------7------7------7/9-|

E |---------------------------------------------------------|
B |---------------------------------------------------------|
G#|------8------8------8------8------8------8------8--------|
E |----9----9--------9----9--------9----9--------9----9-----|
B |---------------------------------------------------------|
E |-9---------9---9---------9---9---------9---9---------9\5-|

E |---------------------------------------------------------|
B |---------------------------------------------------------|
G#|------5------5------5-------------3------3------3------3-|
E |----5----5--------5----5---5----5----5--------5----5-----|
B |---------------------------------------------------------|
E |-5---------5---5---------5---5---------5---5---------5---|

Third set of bars are the same as the first:

E |---------------------------------------------------------|
B |---------------------------------------------------------|
G#|------0------0------0-------------0------0------0--------|
E |----0----0--------0----0---0----0----0--------0----0-----|
B |---------------------------------------------------------|
E |-0---------0---0---------0---0---------0---0---------0/7-|

E |---------------------------------------------------------|
B |---------------------------------------------------------|
G#|------7------7------7-------------7------7------7--------|
E |----7----7--------7----7---7----7----7--------7----7-----|
B |---------------------------------------------------------|
E |-7---------7---7---------7---7---------7---7---------7/9-|

E |---------------------------------------------------------|
B |---------------------------------------------------------|
G#|------8------8------8-------------8------8------8--------|
E |----9----9--------9----9---9----9----9--------9----9-----|
B |---------------------------------------------------------|
E |-9---------9---9---------9---9---------9---9---------9\5-|

E |---------------------------------------------------------|
B |---------------------------------------------------------|
G#|------5------5------5-------------3------3------3------3-|
E |----5----5--------5----5---5----5----5--------5----5-----|
B |---------------------------------------------------------|
E |-5---------5---5---------5---5---------5---5---------5---|

Then start strumming (4:51):

E |-0------0------0------0---0-|
B |-0------0------0------0---0-|
G#|-0------7------8------5---3-|
E |-0------7------9------5---5-|
B |-0------X------X------X---X-|
E |-0------7------9------5---5-| X2

E |-0-|
B |-0-|
G#|-0-|
E |-0-|
B |-0-|
E |-0-|

Chorus 3 (5:50)

E |---------------------------------------------------------|
B |---------------------------------------------------------|
G#|------0------0------0-------------0------0------0--------|
E |----0----0--------0----0---0----0----0--------0----0-----|
B |---------------------------------------------------------|
E |-0---------0---0---------0---0---------0---0---------0/7-|

E |---------------------------------------------------------|
B |---------------------------------------------------------|
G#|------7------7------7-------------7------7------7--------|
E |----7----7--------7----7---7----7----7--------7----7-----|
B |---------------------------------------------------------|
E |-7---------7---7---------7---7---------7---7---------7/9-|

E |-------------------------------------------------------0-|
B |-------------------------------------------------------0-|
G#|------8------8------8-------------8------8------8------5-|
E |----9----9--------9----9---9----9----9--------9----9---5-|
B |-------------------------------------------------------X-|
E |-9---------9---9---------9---9---------9---9---------9\5-|

Outro (6:15)

E |----------------------------------------------------------------|
B |----------------------------------------------------------------|
G#|------0------0------0------0-------------0-------------0--------|
E |----0------0------0------0----0---0----0----0---0----0----0---0-|
B |----------------------------------------------------------------|
E |-0------2------4------5---------5---5---------5---5---------5---|

E |----------------------------------------------------------------|
B |----------------------------------------------------------------|
G#|------0------0------0------0-------------0-------------0--------|
E |----0------0------0------0----0---0----0----0---0----0----0---0-|
B |----------------------------------------------------------------|
E |-9------7------4------5---------5---5---------5---5---------5---|

E |----------------------------------------------------------------|
B |----------------------------------------------------------------|
G#|------0------0------0------0-------------0-------------0--------|
E |----0------0------0------0----0---0----0----0---0----0----0---0-|
B |----------------------------------------------------------------|
E |-0------2------4------5---------5---5---------5---5---------5---|

E |------------------------0-|
B |------------------------0-|
G#|------0------0------0---0-|
E |----0------0------0-----0-|
B |------------------------0-|
E |-9------7------4--------0-|




| .  palm mute
| /  slide up
| \  slide down
| h  hammer-on
| p  pull-off
| ~  vibrato
| +  harmonic
| x  Mute note
===============================================================================
Tap to rate this tab
# A B C D E F G H I J K L M N O P Q R S T U V W X Y Z