Song name
# A B C D E F G H I J K L M N O P Q R S T U V W X Y Z

The Dirtbombs - Ever Lovin Man tab

Song: Ever Lovin' Man (Mick Collins)
Artist: The Dirtbombs
Album: We Have You Surrounded

Standard Tuning

Listen to the song to get the correct rhythm and timing

Intro
e|-----------------|
B|-----------------|
G|-----7--7--7--9--|
D|--9--7--7--7--9--|
A|--9--5--5--5--7--|
E|--7--------------|

Verse
bass plays intro bit 8x with drums, then the "distorted bass" plays this arranged for 
2x
e|-------------|
B|-------------|
G|-------------|
D|-------------|
A|----9--8--7--|
E|--7----------|
for the rest of the verse play the intro bit 8x

Chorus
e|------------------------------------------------------------------------|
B|------------------------------------------------------------------------|
G|--7--7--7--7--7--12--12--12--12--11--9--9--9--9--9--12--12--12--12--12--|
D|--7--7--7--7--7--12--12--12--12--11--9--9--9--9--9--12--12--12--12--12--|
A|--5--5--5--5--5--10--10--10--10--9---7--7--7--7--7--10--10--10--10--10--|
E|------------------------------------------------------------------------|

e|----------------------------------------------------------------------|
B|----------------------------------------------------------------------|
G|--7--7--7--7--7--12--12--12--12--11--9--9--9--9--9--12--12----12--12--|
D|--7--7--7--7--7--12--12--12--12--11--9--9--9--9--9--12--12----12--12--|
A|--5--5--5--5--5--10--10--10--10--9---7--7--7--7--7--10--10----10--10--|
E|----------------------------------------------------------------------|

Those are the only riffs in the song. Just listen to it to figure out the order and 
There is a small solo, but it isn't really worth tabbing out. He just plays some stuff in B. 
play whatever.
Tap to rate this tab
 
# A B C D E F G H I J K L M N O P Q R S T U V W X Y Z