Song name
# A B C D E F G H I J K L M N O P Q R S T U V W X Y Z

The Dirtbombs - Headlights On tab

Tuning: (E A D G)


Bass riff:
      q q Q. Q E E E q. E
|----------------------------|
|---------4--2---------------|
|--------------4-2-0---------|
|-----2-2------------2--0----|

Main guitar riff
  Q Q  Q  Q  Q  Q  E  Q  E
|-----------------------------|
|-----------------------------|
|-----------------------------|
|-----------------------------|
|-4-4--4--4--4--4--4--7--2----|
|-2-2--2--2--2--2--2--5--0----|

Chorus
  H.  Q  H.  Q   H.  Q   H.   Q
|-----------------------------------|
|-----------------------------------|
|-----------------------------------|
|-----------------------------------|
|-7------9------12------14---14-----|
|-5---0--7---0--10---0--12---12\----|

http://www.thedirtbombs.net/
Tap to rate this tab
# A B C D E F G H I J K L M N O P Q R S T U V W X Y Z