Song name
# A B C D E F G H I J K L M N O P Q R S T U V W X Y Z

The Dirty Dixies - My Dog My Truck My Woman tab

The Dirty Dixies aka Trivium
My Dog, My Truck, My Woman
The *** under the 11's are palm mutes

e-----------------|----------------------------------|
b-----------------|----------------------------------|
g-----------------|----------------------------------|
D--2-0------------|------------------2--2-2-2-2-2-2--|
A------4-2-0------|--2--2-2-2-2-2-2--0--0-0-0-0-0-0--|
D-------------5-4-|--2--2-2-2-2-2-2------------------|x2
Verse Riff``````````````````````````````````````````````````````````
e-------------------------------------------------------------------|
b-------------------------------------------------------------------|
g-------------------------------------------------------------------|
D------------------2--2-2-2-2-2-2-------------------2--2-2-2-2-2-2--|
A--2--2-2-2-2-2-2--0--0-0-0-0-0-0---2--2-2-2-2-2-2--0--0-0-0-0-0-0--|
D--2--2-2-2-2-2-2-------------------2--2-2-2-2-2-2------------------|

```````````````````````````````````````````````````````````````````
e-------------------------------------------------------------------|
b-------------------------------------------------------------------|
g-------------------------------------------------------------------|
D------------------2--2-2-2-2-2-2--4-4-4-4-4-4-4-4-4-4-4-4-4-4-4-4--|
A--2--2-2-2-2-2-2--0--0-0-0-0-0-0--2-2-2-2-2-2-2-2-2-2-2-2-2-2-2-2--|
D--2--2-2-2-2-2-2---------------------------------------------------|x3
Pre Chorus
e-------------11---------------8--------------------------55555---|
b--------3/12-------------3/10------------------------3/7---------|
g-----------------------------------------------------------------|
D--2--------------2----------------2------------------------------|
A--0--2-----------0---2------------0--2--2-2-2-2-2-2--------------|
D-----2---------------2---------------2--2-2-2-2-2-2--------------|
Chorus                                   * * * * * *
e--2-2-2-2-2-2-2-2-2-2-2-2-2-2-2-2-----------------------------------|
b--3-3-3-3-3-3-3-3-3-3-3-3-3-3-3-3--2-2-2-2-2-2-2-2-2-2-2-2-2-2-2-2--|
g--2-2-2-2-2-2-2-2-2-2-2-2-2-2-2-2--2-2-2-2-2-2-2-2-2-2-2-2-2-2-2-2--|
D-----------------------------------2-2-2-2-2-2-2-2-2-2-2-2-2-2-2-2--|
A-----------------------------------0-0-0-0-0-0-0-0-0-0-0-0-0-0-0-0--|
D--------------------------------------------------------------------|x2
Solo
e--15p14p12----------14b(15)b(15)12----15p14p12--------------------------|
b-----------15p14p12----------------14----------15p14p11--9-9-7-5--------|
g---------------------------------------------------------------------9--|
D------------------------------------------------------------------11----|
A------------------------------------------------------------------**----|
D------------------------------------------------------------------------|

e------------------------------------------------------------------------|
b------------------------------------------------------------12~-121212--|
g-----9-----9-10b(11)b(10)----9----9----------------9~-11-13-------------|
D--11----11----------------11---11---11-10-9~-11-13----------------------|
A--**----**--------------------------------------------------------------|
D------------------------------------------------------------------------|

e-----------14b(15)14b(15)----14---------------|
b--14-14-15----------------15----15-14-12-15~--|
g----------------------------------------------|
D----------------------------------------------|
A----------------------------------------------|
D----------------------------------------------|

Verse Riff x2
Pre Chorus
Chorus x2
On second chorus the D chord goes
e--2-2-2-2-2-2-2-2-3-3-3-3-3-3-3-3--|
b--3-3-3-3-3-3-3-3-3-3-3-3-3-3-3-3--|
g--2-2-2-2-2-2-2-2-2-2-2-2-2-2-2-2--|
D-----------------------------------|
A-----------------------------------|
D-----------------------------------|

Pre Chorus again
then
e------55555--|
b--3/7--------|
g-------------|
D-------------|
A-------------|
D-------------|

Lyrics

my dog is my best friend
and he's riding in the truck with me
going on down to Mexico
to find a woman that'll marry me
i'm sitting here thinking of her so
With a cold one in my hand (coors light)
i can't seem to find a woman
i can't even find a friend

my dog is getting lonely
and my dick is getting dry
jerking off
just ain't getting me by

my dog
my truck
my woman

so going on down to mexico
gonna get some beer at texaco
fill my truck up and buy me a hoe
going on down to Mexico

with my dog,
my truck
my woman

still, sittin here
with a cold one in my hand (coors light)
i can't even find a woman
hell i can't find a friend

cause my dog is still lonely
and my dick is STILL dry
and jerking off..
fuck it got in my eye!

my dog,
my truck,
my woman

so I'm going on down to Mexico
gonna get some beer at Texaco,
fill my truck up.
buy me a hoe,
oooh here we go

so going on down to Mexico
gonna get some beer at Texaco
filling my truck and buy me a hoe

going on down to Mexico, with

my dog, my truck, my woman

don't mess with Texas

The Band is Trivium Attempting to make a country song you can go to 
or
http://www.last.fm/music/The+Dirty+Dixies
they dont have a real website Sorry
Tap to rate this tab
# A B C D E F G H I J K L M N O P Q R S T U V W X Y Z