Song name
# A B C D E F G H I J K L M N O P Q R S T U V W X Y Z

The Dirty Guvnahs - Well Be The Light chords

Highlighted       Show chord diagrams
-------------------------------------------------------------------------------
                             Well Be The Light - The Dirty Guvnahs
-------------------------------------------------------------------------------
Tabbed by: MagicBear
E-mail: sfloody17@bellsouth.net

Tuning: Standard

Chords: All the chords can be played like normal but the E and Esus4 are better played up high.
      E       Esus4         
e|----------------------|
B|----9-------10--------|
G|----9-------9---------|
D|----9-------9---------|
A|----7-------7---------|
E|----------------------|

Intro: This riff is played throughout the verses, however, you can also just play 
the chords as listed. 
e|--------------x--x--x---------x--------------------------------------------|
B|----------9---x--x--x---9--9--x--10--10--10--10--9-----9--9--9-------------|
G|----------9---x--x--x---9--9--x--9---9---9---9---9-----9--9--9-------------|
D|----------9---x--x--x---9--9--x--9---9---9---9---9-----9--9--9-------------|
A|-----7----7---x--x--x---7--7--x--7---7---7---7---7--7--7--7--7-------------|
E|--------------x--x--x---------x--------------------------------------------|

E                                       Esus4  
Summers gone but it wont take long to look back
                        
E                          Esus4
My girl had a big sky to consume, yes she did

E                                    Esus4
And I cried, like a brother had been raised up from the pain again

E                                      Esus4
I found myself a way to fall for you

Chorus:
C#      A           E   
Put your hand in my pocket

C#           A         E  
Ill be your favorite song

C#           A             E       
Well be the light and the diamond as well

D                   A                          E
Need my name in the springtime, yes you will



Organ Solo, play intro riff twice.



Verse 2:

E                                        Esus4
Were learning to take our time with the ones we love

E                                Esus4                       
But time will tell if it makes a change

E                            Esus4
Arrived, but turning back to brave it all just for your hand

E                                      Esus4 
Ill do my best, right to be where you want to be, you want to be


Chorus


Guitar Solo:

D  A  E

D  A  E
Play that progression 8 times.

While I do not have the solo tabbed out, it is in the key of Emaj.



Chorus x2




Thank you, email me with any questions.
-The Magic Bear  
Tap to rate this tab
# A B C D E F G H I J K L M N O P Q R S T U V W X Y Z