Song name
# A B C D E F G H I J K L M N O P Q R S T U V W X Y Z

The Dirty Rivers - The Kid tab

The Kid - The Dirty Rivers 

Gtr I (E A D G B E)



Gtr I

Riff A

e|------------------------|------------------------|
B|------------------------|------------------------|
G|----------------0-------|----------------0-------|
D|---0--0-0-3--0----3-0---|---0--0-0-3--0----3-0---|
A|----------------------3-|----------------------3-|
E|------------------------|------------------------|



Riff B

e|-------------------------------------|
B|-------------------------------------|
G|-------------------------------------|   
D|---0-3-2-0-5-3-5-7-5-8-7-5-10-8-7-5--|
A|-------------------------------------|
E|-------------------------------------|
Tap to rate this tab
# A B C D E F G H I J K L M N O P Q R S T U V W X Y Z