Guitaretab - guitar tabs
Song name
# A B C D E F G H I J K L M N O P Q R S T U V W X Y Z

The Dirty Secrets - Five Feet Of Snow tab

The intro is a synthesizer or keyboard or something, it goes a bit like this:

Intro/Outro Keyboard:

E|----------------------------------------|
B|----------------------------------------|
G|----------2-----------------------------|
D|-------4-----4-5-4--2-2-------2--4-5-4--|
A|--2-2--------------------5--------------|
E|----------------------------------------|

There is guitar and keyboard in the fast bit.

(call this 'Bridge')

Tremolo pick this (I'm pretty sure you need 3 beats per note):

E|----------------|-----------------|------|-------------------|
B|----------------|-----------------|------|-------------------|
G|------16-14-11--|--14-11-9-12-11--|--11--|--9-11-12-11-------|
D|----------------|-----------------|------|-------------------|
A|--14------------|-----------------|------|-------------------|
E|----------------|-----------------|------|-------------------|

Work out the timing yourself; its pretty easy

Keyboard plays:

E|-----------------------------|
B|-----------------------------|
G|--12-11--12-11--12-11--12-11-|
D|-----------------------------|
A|-----------------------------|
E|-----------------------------| x2

E|-------------------------|---------------------|
B|-------------------------|---------------------|
G|--11-9--11-9--11-9--11-9-|--9-7--9-7--9-7--9-7-|
D|-------------------------|---------------------|
A|-------------------------|---------------------|
E|-------------------------|---------------------|

Verse:

E|---------------|--------------|---------------|---------------|
B|---------------|--------------|---------------|---------------|
G|--4-4----------|-------9-9----|--7-7----------|--------7-7----|
D|--4-4----------|-------9-9----|--7-7----------|--------7-7----|
A|--2-2--&--&--&-|-&--&--7-7--&-|--5-5--&--&--&-|--&--&--5-5--&-|
E|---------------|--------------|---------------|---------------|

^^& are quarter rests (crotchet)^^

Chorus:

E|--------------------------|--------------------------|
B|--------------------------|--------------------------|
G|--4-4-4-4-4-4-4-4-4-4-4-4-|--4-4-4-4-4-4-4-4-4-4-4-4-|
D|--4-4---------4-4---------|--4-4---------4-4---------|
A|--2-2---------2-2---------|--2-2---------2-2---------|
E|--------------------------|--------------------------|

E|--------------------------|--------------------------|
B|--------------------------|--------------------------|
G|--2-2-2-2-2-2-2-2-2-2-2-2-|--2-2-2-2-2-2-2-2-2-2-2-2-|
D|--2-2---------2-2---------|--2-2---------2-2---------|
A|--0-0---------0-0---------|--0-0---------0-0---------|
E|--------------------------|--------------------------|
Palm Mute those fast 4's and 2's ^^

E|-------------------------|-------------------------|
B|-------------------------|-------------------------|
G|-16-16-16-16-16-16-16-16-|-18-18-18-18-19-19-19-19-|
D|-------------------------|-------------------------|
A|-14-14-14-14-14-14-14-14-|-16-16-16-16-17-17-17-17-|
E|-------------------------|-------------------------|
[ Tab from: http://www.guitaretab.com/t/the-dirty-secrets/103106.html ]
E|-------------------------|-------------------------|
B|-------------------------|-------------------------|
G|-18-18-18-18-16-16-16-16-|-18-18-18-18-18-18-19-19-|
D|-------------------------|-------------------------|
A|-16-16-16-16-14-14-14-14-|-16-16-16-16-16-16-17-17-|
E|-------------------------|-------------------------|

Guitar 2:
E|-----------------|------------------|-----------------|-----------------|
B|-----------------|------------------|-----------------|-----------------|
G|--4-4-----4-4----|--4-4-----4-4-----|--2-2-----2-2----|--2-2-----2-2----|
D|--4-4-----4-4----|--4-4-----4-4-----|--2-2-----2-2----|--2-2-----2-2----|
A|--2-2--&--2-2--&-|--2-2--&--2-2--&--|--0-0--&--0-0--&-|--0-0--&--0-0--&-|
E|-----------------|------------------|-----------------|-----------------|

E|--------------------|------------------|-----------------|-----------------|
B|--------------------|------------------|-----------------|-----------------|
G|--4-4-4-4-4-4-4-4-4-|--6-6-6-6-7-7-7-7-|-6-6-6-6-4-4-4-4-|-6-6-6-6-6-6-7-7-|
D|--4-4-4-4-4-4-4-4-4-|--6-6-6-6-7-7-7-7-|-6-6-6-6-4-4-4-4-|-6-6-6-6-6-6-7-7-|
A|--2-2-2-2-2-2-2-2-2-|--4-4-4-4-5-5-5-5-|-4-4-4-4-2-2-2-2-|-4-4-4-4-4-4-5-5-|
E|--------------------|------------------|-----------------|-----------------|


'That other bit':

This is guitar that goes behind the keyboard's intro riff,
it doesnt appear till later in the song:
E|------------------|------------------|
B|------------------|------------------|
G|--4-4-4-4-4-4-4-4-|--7-7-7-7-9-9-9-9-|
D|--4-4-4-4-4-4-4-4-|--7-7-7-7-9-9-9-9-|
A|--2-2-2-2-2-2-2-2-|--5-5-5-5-7-7-7-7-|
E|------------------|------------------|

And thats it for the tab.

Song structure:

-Intro x4
Just the keyboard doin' its thing

-Bridge x2 - No Vocals

-Verse x2

-Bridge x2

-Chorus

-Bridge x2 - No Vocals

-Verse x2

-Bridge x2

-Chorus x2

-Intro x4
The guitars play 'that other bit' here

-Verse x2

-Bridge x4

-Intro x4
The guitars play 'that other bit' here

And now the lyrics:

Underground where the fingertips call her name
Trapped in silence waiting on the shallow plain
Iím searching with my hands & bones
Beneath the snow, thereís something down below

I see her face beneath the snow
So Iíll keep reaching in
I know thereís something down below
So Iíll keep reaching in

How was I supposed to know?
I couldnít read the words
On your silent tongue

Down the stairway of her open heart
Closer now to where she once belong
She takes me with an open hand
I feel her trying to get out

I see her face beneath the snow
So Iíll keep reaching in
I know thereís something down below
So Iíll keep reaching in

How was I supposed to know?
I couldnít read the words
On your silent tongue

Oh, how was I supposed to know?
I couldnít read the words
On your silent tongue

Underground where the fingertips call her name
Trapped in silence waiting on the shallow plain
Iím searching with my hands & bones
Beneath the snow, thereís something down below

I see her face beneath the snow
So Iíll keep reaching in
I know thereís something down below
So Iíll keep reaching in
I know thereís something down below
So Iíll keep reaching in
I know thereís something down below
So Iíll keep reaching in

So Iíll keep reaching in

So Iíll keep reaching in

*Lyrics transcribed by William He