Song name
# A B C D E F G H I J K L M N O P Q R S T U V W X Y Z

The Dirty Shame - Say Goodnight Crazy Lady tab

-------------------------------------------------------------------------------
                             Say Goodnight, Crazy Lady - The Dirty Shame
-------------------------------------------------------------------------------
Album: Smog Cutter Love Story
Tabbed by: Mel
E-mail: melectricsix@gmail.com

[Intro/Verse]
e]------------------------------------|
B]------------------------------------|
G]------------------------------------|
D]----0--4-0--0-4-0-------------------|
A]--2---------------0-0---------0-----|
E]-----------------------3--3-3-------| [x many]

e]-----------------------------|
B]-----------------------------|
G]-----------------------------|
D]-----------------------------|
A]-----------------------------|
E]---7---3-3-3--10--2-2-2------| x2

[chorus]
e]------------------|
B]------------------|
G]--4-------7-------|
D]--4---5---7---7---|
A]--2---5---5---7---|
E]------3-------2---| [x8]

e]---------------------------------|
B]---------------------------------|
G]---------------------------------|
D]----0--4-------------------------|
A]--2---------0--------------------|
E]-----------------4--4-4--3--3-3--|

[verse]
[Chorus]

            "I was hired..."
e]------------------------------------------|
B]------------------------------------------|
G]-9--9-9---9-9-----------------------------|
D]-9--9-9---9-9---5--5---10--10--7--7-7-----|
A]-7--7-7---7-7---5--5---10--10--7--7-7-----|
E]----------------3--3---8---8---5--5-5-----| x3

                   "How can I be expected..."
e]------------------------------------|
B]------------------------------------|
G]------------------------------------|
D]--9--10--12---12-12---7-7--5--5-5---|
A]--9--10--12---12-12---7-7--5--5-5---|
E]--7--8---10---10-10---5-5--3--3-3---| x2

e]-----------------------------|
B]-----------------------------|
G]-----------------------------|
D]-----------------------------|
A]-----------------------------|
E]---7---3-3-3---10--2-2-2-----| x2

"Donít tell me your secrets"
e]-------------------|
B]-------------------|
G]--4-------7---9----|
D]--4---5---7---9----|
A]--2---5---5---7----|
E]------3------------| x8

Lyrics
--------
I was a man
You were a woman
And we were guests at the Romano Inn
We were in town on the name of business
But the pleasure was about to begin
We pushed our way past the karaoke singers
And past the midgets and the ladies in leather
I bought the drinks and you bought the money now
And we bought ourselves a little time together

Donít tell me your secrets
Donít tell me your lies
Just make me an offer
Cut me down to size
Donít tell me your name
Donít tell me where youíre from
Say goodnight, crazy lady
My work here is done
My work here is done

I wrapped you up in an American flag
Put you in the corner and forced you to sing
We were under dressed for the occasion
Nobody was wearing anything
Now mama donít let your baby
Grow up to be another businessman
Take away his credit card before he can use it now
And save his soul as fast as you can

Donít give me your number
Donít give me your card
Just sing me to sleep
And drive away in your car
Put this sheet over me
And cover up my head
Say goodnight, crazy lady
Your babyís dead
Your babyís dead

I was hired
You were hired
We were hired
I was fired
You were fired
We were fired
We were permanently retired
Retired
How can I be expected to work under these conditions?

Tell me your secrets
Tell me your lies
Just make me offer
Cut me down to size
Donít tell me your secrets
Donít tell me your lies
Just make me an offer
Cut me down to size
[Say Goodnight]
Tell me your secrets
[Say Goodnight, Crazy Lady]
Tell me your lies
[Your babyís dead]
Just make me an offer
[Say Goodnight, Crazy Lady]
Cut Me Down To Size
[Your babyís dead]
Donít tell me your secrets
[Say Goodnight, Crazy Lady]
Donít tell me your lies
[Your babyís dead]
Just make me an offer
[Say Goodnight, Crazy Lady]
Cut me down to size
[Say Goodnight]

---------
Lyrics from http://www.wikisix.co.uk
Tap to rate this tab
# A B C D E F G H I J K L M N O P Q R S T U V W X Y Z