Song name
# A B C D E F G H I J K L M N O P Q R S T U V W X Y Z

The Dirty Shame - I Though You Was Dead tab

-------------------------------------------------------------------------------
                             I Though You Was Dead - The Dirty Shame
-------------------------------------------------------------------------------
Album: Smog Cutter Love Story
Tabbed by: Mel
E-mail: melectricsix@gmail.com


Intro/Verse
e]-----------------------------------|
B]-----------------------------------|
G]-----------------------------------|
D]--------7------------5-------------|
A]--------------------------5--5--5--|
E]---3/5-----5--7~-------3-----------| [x6]

Chorus
e]-------------------|
B]-------------------|
G]--------5-------7--|
D]---7----5-------7--|
A]---7----3-------5--|
E]---5---------------| [x3]

e]-------|
B]-------|
G]---9---|
D]---9---|
A]---7---|
E]-------|

Verse

Bridge
"I thought it was heaven, but now I知 making love at the gates of Hell"
e]-------------------------------------------------------------------------------------|
B]--------[keeps struming]-------------------------------------------------------------|
G]---9------------------------------------14-------------------------------------------|
D]---9------------------------------------14---------------------9---------------------|
A]---7------------------------------------12---------------------9---------------------|
E]---------------------------------------------------------------7----7--10--7--10--7--| [x5]

e]-------------------------------------------------|
B]-------------------------------------------------|
G]-------------------------------------------------|
D]-------------------------------------------------|
A]-------------------------------------------------|
E]---8-8-8-8-8-8-8--3-3-3-3-3------------5---------|

e]------------------------------------------------------------|
B]------------------------------------------------------------|
G]------------------------------------------------------------|
D]-------3----------2-2----------------3---------2-2----------|
A]-3--5----5-------------3--------3-5-----5----------3--------|
E]------------3-3----------5-5---------------3-3-------5-5-5--|

e]------------------------------------------------------------|
B]------------------------------------------------------------|
G]--------------------------------0-------0-------0-------0---|
D]-------3----------2-2----0----0---0---0---0---0---0---0-----|
A]-3--5----5-------------3----3-------3-------2-------2-------|
E]------------3-3---------------------------------------------|

[bridge]
[intro]

e]------------------------------------------------|
B]------------------------------------------------|
G]------------------------------------------------|
D]---------2-----2-----2-----------2-----2-----2^-|
A]-3-3-5-5---3-5---3-5---5-3-3-5-5---3-5---3-5----|
E]------------------------------------------------| x2

e]-------------|
B]-------------|
G]----9--------|
D]--2\9--------|
A]----7--------|
E]-------------|


Lyrics
------------
You say that you never seen a car like mine
You said that you壇 love me if we went for a ride
We fell in love together, babe
We fell too fast
I was holding on too tight
Then you threw my ass away

Like a habit baby,
Kicked like a dog,
I was dropped like a habit, baby
Kicked like a dog,
I was dropped like a habit, baby
Kicked like a dog,
I get to spend the rest of my days
Walking around in a fog

And now I知 drinking motor oil just to get through the night
I know it looks bad but I知 doing alright
And now she痴 coming back to love me
To get in my head
She said: I知 coming back to kill you
舛os I thought you was dead

I知 coming back to kill you
舛os I thought you was dead
I知 coming back to kill you
舛os I thought you was dead
She said: I知 coming back to kill you
I thought you was dead
I知 gonna bleed you, boy
Till your dead
Till your dead

I thought it was heaven
But now I知 making love at the gates of Hell
I thought it was heaven
But now I知 making love at the gates of Hell
I thought it was heaven
But now I知 making love at the gates of Hell

I thought it was heaven
But now I知 making love at the gates of Hell
I thought it was heaven
But now I知 making love at the gates of Hell
I thought it was heaven
But now I知 making love at the gates of Hell
-----------
Lyrics from http://www.wikisix.co.uk
Tap to rate this tab
# A B C D E F G H I J K L M N O P Q R S T U V W X Y Z