Song name
# A B C D E F G H I J K L M N O P Q R S T U V W X Y Z

The Dirty Shame - Hospital Bed chords

Highlighted       Show chord diagrams
-------------------------------------------------------------------------------
                             Hospital Bed - The Dirty Shame
-------------------------------------------------------------------------------
Album: Smog Cutter Love Story
Tabbed by: Mel
E-mail:melectricsix@gmail.com

[intro]
e]-----15-------14--------12------|
B]--------12-------12---------15^-|
G]--------------------------------|
D]--------------------------------|
A]--------------------------------|
E]--0--------0---------0----------| x2


[second guitar playing this over the verses (probably incorrect)]
e]--------------------------------------------------------|
B]--------------------------------------------------------|
G]------------------2-2/4--2--2---2---2---2---------------|
D]------------2--4----------4---4---4---4---4-2-----------|
A]---2--4--5------------------------------------5--5-5--5-|
E]--------------------------------------------------------|

G D E B
Ah

G
When you came to see me
D                    E B
In that hospital bed
        G
They had pulled out the plug
   D                         E B
And they had left me for dead

G
I had started on a journey
D
Down that tunnel of light
E
One look in your eyes
          B
And everything was alright
G
When you came to see me
D                   E B
In that hospital bed

[intro]
G D E B
Ah

G
And now weíve got a little time
            D              E B
Before that trumpet sounds
        G
And the earth rises up
    D              E B
To swallow me down

        G
Will you stay here now
      D
At the end of my days
E
Will you give me your heart
          B
Until that sad waltz plays?
         G
Will you stay beside me
      D             E B
In that hospital bed?

[intro]
G D E B
Ah

  G
So draw the curtains
  D
Look out for the nurse
  E
You said you loved me
       B
for better and for worse
  G
For richer, for poor
   D
In sickness and in health
     E
You have held onto my hand
              B
Though itís a bad hand Iíve been dealt
       G
Will you stay beside me
       D            E B
In that hospital bed?
       G
Will you stay beside me
       D            E B
In that hospital bed?

G D E B
Ah
Tap to rate this tab
# A B C D E F G H I J K L M N O P Q R S T U V W X Y Z