Song name
# A B C D E F G H I J K L M N O P Q R S T U V W X Y Z

The Dirty Shame - The International Symbol For Radiation tab

-------------------------------------------------------------------------------
                The International Symbol For Radiation - The Dirty Shame
-------------------------------------------------------------------------------
Album: Smog Cutter Love Story
Tabbed by: Mel
E-mail: melectricsix@gmail.com


Intro
e]-----------------------|
B]-----------------------|
G]--2----2----2----2-----|
D]---3----3----3----3----|
A]----5----5----5----5---|
E]-----------------------|

Verse
e]---------------------------------------------------|
B]---------------------------------------------------|
G]-2-----------7------7------7----9------9------9----|
D]--3-----------8------8------8----10-----10-----10--|
A]----5-[x12]-----10----10----------12------12-------|
E]---------------------------------------------------|

Chorus
e]------------------------------------------------------------------|
B]---------------3-3---3H5p3------------------------3-3---3H5p3-----|
G]-----0---0---2-----2-------2---------0------0---2-----2-------2---|
D]---2---2---------------------0-----3------3--------------------0--|
A]-3---3---------------------------5------5-------------------------|
E]------------------------------------------------------------------|x3

e]-----------------------------|
B]----------------5------------|
G]-----0-----0----6-----7------|
D]---2-----2------7-----7------|
A]-3-----3--------7-----5------|
E]-----------------------------|


Solo
e]-----------------------------------------|
B]----------------6------------------------|
G]------5-7-5-7-7---7-----7-----------9----|
D]--5/7-----------------8---8-8/10-10---10-|
A]-----------------------------------------|
E]-----------------------------------------|x3

e]---------6-------8-----------|
B]--3--------------------5-----|
G]--3--------------------------|
D]-----------------------------|
A]-----------------------------|
E]-----------------------------|

Outro
e]------------------------------|
B]------------------------------|
G]--2-------------2--2--2-------|
D]---3------------3--3--3-------|
A]----5-[x many]--5--5--5-------|
E]------------------------------|
Tap to rate this tab
 
# A B C D E F G H I J K L M N O P Q R S T U V W X Y Z