Song name
# A B C D E F G H I J K L M N O P Q R S T U V W X Y Z

The Disables - Girls Dont Like Us Cause We Dont Play Football tab

*MODS: http://www.thedisables.com/ *

Artist: The Disables

Track: Girls Don't Like Us Cause We Don't Play Football

tabbed by: shanE
email: random.hero___@hotmail.com



Intro/Chorus/Bridge
e|-----------------------|
B|-----------------------|
G|-9-9-9-9-9-9-9-9-9-----|
D|-9-9-9-9-9-9-9-9-9--9-7|
A|-7-7-7-7-7-7-7-7-7--9-7|
E|--------------------7-5|



Verse
e|---------------------|
B|---------------------|
G|---------------------|
D|-9-9-9-9--6--4-------|
A|-9-9-9-9--6--4-------|
E|-7-7-7-7--4--2-------|

Pre-Chorus

e|-------------------|
B|-------------------|
G|-9-9-9-9-9-9-9-9-9-|
D|-9-9-9-9-9-9-9-9-9-|
A|-7-7-7-7-7-7-7-7-7-|
E|-------------------|


End it on an E
e|----|
B|----|
G|-9--|
D|-9--|
A|-7--|
E|----|



Simple song but good anyways.
Tap to rate this tab
 
# A B C D E F G H I J K L M N O P Q R S T U V W X Y Z