Song name
# A B C D E F G H I J K L M N O P Q R S T U V W X Y Z

The Discocks - Kick Out tab

90s Punk band. Good, good song.

Solo
e|-------------10-9-10-12-10-9-7-|
B|-8-0-8-6-5-6-------------------|
G|-------------------------------|
D|-------------------------------|
A|-------------------------------|
E|-------------------------------|

e|--7--------10-9-12----|
B|-8-8-6-5-6---------10-|
G|----------------------|
D|----------------------|
A|----------------------|
E|----------------------|

Verse
e|---------------------------------|
B|---------------------------------|
G|---------------------------------|
D|-----------------7-7-9-9-7-7-9-9-|
A|-7-7-7-7-7-7-7-7-5-5-7-7-5-5-7-7-|
E|-5-5-5-5-5-5-5-5-----------------|

e|---------------------------------|
B|---------------------------------|
G|---------------------------------|
D|-----------------7-7-9-9---------|
A|-7-7-7-7-7-7-7-7-5-5-7-7-7-7-7-7-|
E|-5-5-5-5-5-5-5-5---------5-5-5-5-|

Pre Chorus
e|---------------|
B|---------------|
G|-6---7---6---9-|
D|-6---7---6---9-|
A|-4---5---4---7-|
E|---------------|

Chorus
e|-------------------|
B|-------------------|
G|-------------------| x3
D|------------5-5----|
A|-5--5-5-5-5-3-3----|
E|-3--3-3-3-3--------|

Then... x1
e|-----------------|
B|-----------------|
G|-----------------|
D|-7-7-5-5---------|
A|-5-5-3-3-5-5-5-5-|
E|---------3-3-3-3-|

   The Discocks https://myspace.com/thediscocksjapanpunk
Tap to rate this tab
 
# A B C D E F G H I J K L M N O P Q R S T U V W X Y Z