Song name
# A B C D E F G H I J K L M N O P Q R S T U V W X Y Z

The Dismemberment Plan - The Jitters tab

-----------------------------------------------------------------------------
			   The Jitters - Dismemberment Plan
-----------------------------------------------------------------------------
Tabbed by: dave
Email: thischarmingman13@gmail.com

Tuning: std


The Jitters
These two parts are the whole song

e|---------------------------------------------------------------------------|
B|---------------------------------------------------------------------------|
G|-----4---4----------------4---4---------------4---4------------------------|
D|---0---0---0------------0---0---0-----------0---0---0----------------------|
A|-2--------------------2-------------------2--------------------------------|
E|--------------0-0-3----------------0-0-3-----------------------------------|

e|--2---------0-------------------------------0------------------------------|
B|--3---------0--------3--3-5--5-7--7-6-------4------------------------------|
G|--4---------3--------2--2-4--4-6--6-5-------3------------------------------|
D|--4---------2--------0----2----4----3-------1------------------------------|
A|--2---------2--------------------------------------------------------------|
E|---------------------------------------------------------------------------|

| /  slide up
| \  slide down
| h  hammer-on
| p  pull-off
| ~  vibrato
| +  harmonic
| x  Mute note
=============================================================================
Tap to rate this tab
# A B C D E F G H I J K L M N O P Q R S T U V W X Y Z