Song name
# A B C D E F G H I J K L M N O P Q R S T U V W X Y Z

The Distillers - City Of Angels tab

tabed by punkrockfan666

this is a great punk song thats rly easy, brody is also prety hot so thats always a plus 
wel anyways if u hav an questions, coments input devilsilber@msn.com or ad me on msn 
wel here it is

Intro
e|---------------------------------------------------------------------------|
b|---------------------------------------------------------------------------|
g|---------------------------------------------------------------------------|
d|----------------------7-7-7-7-7-7-7---------------------------9-9-9-9-9^---|
a|--5-5-5-5-5-5-5--4-5--5-5-5-5-5-5-5--4-5--7-7-7-7-7-7-7--6-7--7-7-7-7-7^---|
e|--3-3-3-3-3-3-3--2-3-----------------2-3--5-5-5-5-5-5-5--4-5---------------|

Verse
e|-----------------------------------------------------------------------------|
b|-----------------------------------------------------------------------------|
g|-----------------------------------------------------------------------------|
d|---------------------------7-7-7-7-7-7-7-7-7-7-7-7---------------------------|
a|--5-5-5-5-5-5-5-5-5-5-5-5--5-5-5-5-5-5-5-5-5-5-5-5--7-7-7-7-7-7-7-7-7-7-7-7--|
e|--3-3-3-3-3-3-3-3-3-3-3-3---------------------------5-5-5-5-5-5-5-5-5-5-5-5--|
    |_|   |_|   |_|   |_|    |_|   |_|   |_|   |_|    |_|   |_|   |_|   |_|
    pm    pm    pm    pm     pm    pm    pm    pm     pm    pm    pm    pm

e|------------------------------|
b|------------------------------|
g|------------------------------|
d|-9-9-9-9-9-9-9-9-9--9-9-9-9---|
a|-7-7-7-7-7-7-7-7-7--7-7-7-7---|
e|------------------------------|
   |_|   |_|   |_|
   pm    pm    pm

Chorus
e|---------------------------------------------------------------------------------|
b|---------------------------------------------------------------------------------|
g|---------------------------------------------------------------------------------|
d|---------------------------6-7-7-7-7-7-7-7-7-7-7-7-7-----------------------------|
a|--5-5-5-5-5-5-5-5-5-5-5-5--4-5-5-5-5-5-5-5-5-5-5-5-5--6-7-7-7-7-7-7-7-7-7-7-7-7--|
e|--3-3-3-3-3-3-3-3-3-3-3-3-----------------------------4-5-5-5-5-5-5-5-5-5-5-5-5--|

e|--------------------------|
b|--------------------------|
g|--------------------------|
d|-8-9-9-9-9-9-9-9-9-9-9^---|
a|-6-7-7-7-7-7-7-7-7-7-7^---|
e|--------------------------|

Bridge
e|---------------------------------------------------------------|
b|---------------------------------------------------------------|
g|---------------------------------------------------------------|
d|-----6-----7--7--------8-9------------6-6/7---------8-8/9-----|
a|--5--4-5-5-5-------7/12--6-7--12---5--4-4/5--6-6/7--6-6/7-----|
e|--3----------------------------------3---------4-4/5-----------|

e|------------------------------------------------------------------------------|
b|------------------------------------------------------------------------------|
g|------------------------------------------------------------------------------|
d|---------------------------7-7-7-7-7-7-7-7-7-7-7-7----------------------------|
a|--5-5-5-5-5-5-5-5-5-5-5-5--5-5-5-5-5-5-5-5-5-5-5-5--7-7-7-7-7-7-7-7-7-7-7-7---|
e|--3-3-3-3-3-3-3-3-3-3-3-3---------------------------5-5-5-5-5-5-5-5-5-5-5-5---|
    |_|   |_|   |_|   |_|    |_|   |_|   |_|   |_|    |_|   |_|   |_|   |_|
    pm    pm    pm    pm     pm    pm    pm    pm     pm    pm    pm    pm

e|-----------------------------|
b|-----------------------------|
g|-----------------------------|
d|--9-9-9-9-9-9-9-9-9-9-9-9^---|
a|--7-7-7-7-7-7-7-7-7-7-7-7^---|
e|-----------------------------|
    |___________________|
             pm

Outro
e|----------------------------|
b|----------------------------|
g|----------------------------|
d|------------7---------------|
a|--5---------5---------7-----|
e|--3-------------------5-----|


Order

Intro-x2
Verse-x4
Chorus-x2
Verse-x3
Chorus-x2
Bridge-x1
Chorus-x4
Outro-x1


hope u enjoy it and keep on rokin,

(more punk tabs 2 come)
Tap to rate this tab
# A B C D E F G H I J K L M N O P Q R S T U V W X Y Z